Ads

Good Morning! (Final Fantasy III) Guitar Tab

Submitted: Oct 30, 2014 by JordanVS

0
Download | Listen
Game: Final Fantasy III
Composer(s): Nobuo Uematsu
Style: Arrangement, Fingerstyle
Series: Final Fantasy

AutoScroll: Slow | Medium | Fast
Good Morning!                                             
Unne's Morning Exercise
Final Fantasy III
Nobuo Uematsu
JordanVS

-4/4
-Tempo : 165


     Q    E.  S E  E  E  E     Q    E.  S E  E  E  E     E   E   E  E  E  E  E  E   
E||-------------------------|-------2---3-5--2--3--5--|------7---7--------6--6-----|
B||-------2---3-5--2--3--5--|--3----------------------|-----11--11--------8--8-----|
G||--2----------------------|-------------------------|----------------------------|
D||-------------------------|--0----------------------|----------------0--------0--|
A||--0----------------------|-------------------------|--7----------7--------------|
E||-------------------------|-------------------------|----------------------------|


  E  E  E  E  E  E  E  E       E  E  E  E  E  E  E  E     E  E  Q    E  E  Q     
-----4--------------------||------------0--3--3--2--0--|--------5-------0--3----|
-----5-----7-----5-----3--||------1--2-----------------|--2--3-------2----------|
-----------7-----6-----4--||*--2-----------------------|------------------------|
--------6-----7-----------||*--------------------------|------------------------|
--4-----------------2-----||---0-----0-----------------|--0-----0---------------|
--------------------------||---------------3-----3-----|-------------3-----3----|


  E  E  E  E  E  E  E  E     E  E  E  E  E  E  E  E     E  E  E  E  E  E  E  E   
--9-----7-----5-----3-----|--2-----0-----------------|-----------0--3--3--2--0--|
-----5-----5-----3-----3--|-----2-----2--3-----2-----|-----1--2-----------------|
--------------------------|-----------------4-----4--|--2-----------------------|
--------------------------|--------------------------|--------------------------|
--0-----0-----------------|--0-----0-----------------|--0-----0-----------------|
--------------3-----3-----|--------------3-----3-----|--------------3-----3-----|


  E  E  Q    E  E  Q       S  S S S E  E  Q    Q       
--------5-------0--3----|--2p-0----------------5-----||
--2--3-------2----------|-------3-2-1--2-------------||
------------------------|-----------------2----2----*||
------------------------|---------------------------*||
--0-----0---------------|----------------------0-----||
-------------3-----3----|----------------------------||




Duration Legend
---------------
W - whole
H - half
Q - quarter
E - 8th
S - 16th
T - 32nd
X - 64th
. - note dotted
|-n-|  - n-tuplets


Tablature Legend
----------------
L - tied note
^ - brush up
v - brush down
Login or Register to remove this ad.