Go Above the Clouds! (Final Fantasy III) Guitar Tab

Submitted: Nov 10, 2014 by JordanVS

5
Average: 5 (2 votes)
Download | Listen
Game: Final Fantasy III
Composer(s): Nobuo Uematsu
Style: Arrangement, Fingerstyle
Series: Final Fantasy

This song is also called Flying the Enterprise

AutoScroll: Slow | Medium | Fast
Go Above the Clouds!                                         
The Enterprise Flies Through the Sky
Final Fantasy III
Nobuo Uematsu
JordanVS

-Capo on the 3rd fret
-4/4
-Tempo : 162

							*Segno
     E  E  E  E  E  E  E  E     E  E  E  E  E  E  E  E     Q    E  E  E  E  E  E   
E||--------------------------|--------------------------|-------------------------|
B||--3--3--3--2--2--2--2--2--|-----------2--2--2--2--2--|----------------------0--|
G||--2--2--2--2--2--2--2--2--|--4--4--4--2--2--2--2--2--|--2-------------1--2-----|
D||--------------------------|--2--2--2-----------------|--0-------0--------------|
A||--0--0--0--0--0--0--0--0--|--0--0--0--0--0--0--0--0--|--0----0-----0-----0-----|
E||--------------------------|--------------------------|-------------------------|


  Q    Q    Q    Q       Q    E  E  Q    Q       Q    E  E  E  E  E  E     Q    Q    Q    Q     
----------------------|-----------------------|-------------------------|-----------------2----|
--2-------------------|-----------------------|----------------------0--|--2---------3---------|
-------2---------2----|-----------------------|--2-------------1--2-----|-------2--------------|
------------4---------|--2-------2--L---------|--0-------0--------------|----------------------|
--0----0----0----0----|--0----0-----0----0----|--0----0-----0-----0-----|--0----0----0----0----|
----------------------|-----------------------|-------------------------|----------------------|


  Q    E  E  Q    Q       Q    E  E  Q    Q       Q    Q    E  E  E  E     Q    E  E  Q    Q     
--0-------L--L---------|-----------------------|--2---------L--1--2--4--|--5--------------------|
--2--------------------|--3-------2--L---------|--3---------L-----------|--5-------5--L---------|
----------4--L---------|-----------------------|------------------------|----------6--L---------|
-----------------------|-----------------------|--0----0----0-----0-----|-----------------------|
--0----0-----0----0----|--0----0-----0----0----|------------------------|--0----0-----0----0----|
-----------------------|-----------------------|------------------------|-----------------------|


  Q    Q    E  E  E  E     Q    E  E  Q    Q       Q    Q    E  E  E  E     Q    Q    Q    Q     
---------------------0--|--2--------------------|------------------------|-----------------2----|
--3---------L--2--3-----|--2-------2--L---------|--0---------L-----0--2--|--3----0----4---------|
--4---------------------|----------2--L---------|--0---------L--3--------|----------------------|
------------------------|-----------------------|------------------------|----------------------|
--2----2----2-----2-----|-----------------------|------------------------|----------------------|
------------------------|--2----2-----2----2----|--3----3----3-----3-----|--3----3----2----2----|

					*Da Segno
                                                  ^                  
  Q    E  E  Q    Q       Q    E  E  Q    Q       W                  
--0----------2---------|--3----------4---------|--5----------------||
-----------------------|-----------------------|--2----------------||
-----------------------|-----------------------|--2----------------||
--2----2--0--L----0----|-----------------------|-------------------||
-----------------------|--4----4--2--L----2----|--0----------------||
-----------------------|-----------------------|-------------------||




Duration Legend
---------------
W - whole
H - half
Q - quarter
E - 8th
S - 16th
T - 32nd
X - 64th
. - note dotted
|-n-|  - n-tuplets


Tablature Legend
----------------
L - tied note
^ - brush up
v - brush down
Login or Register to remove this ad.