Ads

Forbidden Land (Final Fantasy III) Guitar Tab

Submitted: Nov 10, 2014 by JordanVS

0
Download | Listen
Game: Final Fantasy III
Composer(s): Nobuo Uematsu
Style: Arrangement, Fingerstyle
Series: Final Fantasy

This song is also called The Forbidden Land Eureka

AutoScroll: Slow | Medium | Fast
Forbidden Land                                            
Forbidden Land Eureka
Final Fantasy III
Nobuo Uematsu
JordanVS

-4/4
-Tempo : 136

      E  E  E  E  E  E  E  E     E  E  E  E  E  E  E  E     E  E  E  E  E  E  E  E   
E||---------------------------|--3-----1--0--1-----------|--------------------------|
B||---------3--5--6-----3-----|--------------------3-----|-----------1--3-----------|
G||*--------------------------|--------------------------|--------3-----------3-----|
D||*--0-----0-----0-----0-----|--0-----0-----0-----0-----|-----3-----3-----3-----3--|
A||------0-----0-----0-----0--|-----2-----2-----0-----3--|--1-----1-----1-----1-----|
E||---------------------------|--------------------------|--------------------------|


  E  E  E  E  E  E  E  E     E  E  E  E  E  E  E  E     E  E  E  E  E  E  E  E   
--------------------------|--------------------------|--3-----1--0--1-----------|
--------3--5--6-----3-----|--------3--5--6-----3-----|--------------------3-----|
--------------------------|--------------------------|--------------------------|
--0-----0-----0-----0-----|--0-----0-----0-----0-----|--0-----0-----0-----0-----|
-----0-----0-----0-----0--|-----0-----0-----0-----0--|-----2-----2-----0-----3--|
--------------------------|--------------------------|--------------------------|


  E  E  E  E  E  E  E  E     E  E  E  E  E  E  E  E     Q    E  E  Q    Q     
--------------------------|-----------3--5-----------|-------------3----5----|
-----------1--3-----------|--------6-----------6-----|-------5--6------------|
--------3-----------3-----|--------------------------|-----------------------|
-----3-----3-----3-----3--|--3-----3-----3-----3-----|-----------------------|
--1-----1-----1-----1-----|-----3-----3-----3-----3--|--3----3-----3----3----|
--------------------------|--------------------------|-----------------------|


  Q    E  E  Q    Q       E  E  E  E  E  Q    E     E  Q    E  E  E  E  E     Q    E  E  Q    Q     
--6----5--3-------5----|--3-----1----------------|-------------------------|-------------3----5----|
-------------5---------|-----------3--L----------|--L----------------------|-------5--6------------|
-------------3---------|-------------------------|----------------0--2-----|-----------------------|
-----------------------|--0--0-----0-------------|-------------3--------3--|--2--------------------|
-----------------------|--------------3--3----3--|--1--1----1--2--2-----2--|--3----3-----3----3----|
--0----0-----0----0----|-------------------------|-------------------------|-----------------------|


  Q     E  E  Q     Q       Q    Q    E  E   E  E     E  E  E  E  E  E  E  E     
--6----------------------|-------------------------|---------------------------||
-------10--8-------10----|--8---------L--8--10--8--|--5------------------------||
--------------9----------|-------------------------|--6-----------------------*||
--------------8----------|--8---------L------------|--------------------------*||
--7-----7-----7-----7----|--6----6----6------6-----|-----7-----7-----7-----7---||
-------------------------|-------------------------|--5-----5-----5-----5------||


  W                  
-------------------||
-------------------||
--7----------------||
--7----------------||
--5----------------||
-------------------||




Duration Legend
---------------
W - whole
H - half
Q - quarter
E - 8th
S - 16th
T - 32nd
X - 64th
. - note dotted
|-n-|  - n-tuplets
Login or Register to remove this ad.