Eternal Wind (Final Fantasy III) Bass/Guitar Tab

Submitted: Mar 16, 2011 by auriplane (Last updated: Mar 17, 2011)

5
Average: 5 (2 votes)
Download | Listen
Game: Final Fantasy III
Composer(s): Nobuo Uematsu
Style: 2 or more instruments, Alternate picking, Transcription
Series: Final Fantasy

AutoScroll: Slow | Medium | Fast
         Final Fantasy III - Eternal Wind GUITAR & BASS TAB
                      Composed by Nobuo Uematsu

               Tabbed by Auriplane ([email protected])


This is based on the Famicom (NES) version of the song.  I decided to
go back and modify the tab with the differences from the DS version of
the song, though, so if you download the ZIP file, there's a second GP5 
in it which is based on the DS version.  (There are only small changes,
in any case.)



                         FIRST GUITAR (MELODY)

Rest for two measures at the beginning.

        Part A

e |------------------------15------|12------------------------------|
B |15------------------------------|------------------------13------|
G |--------------------------------|--------------------------------|
D |--------------------------------|--------------------------------|
A |--------------------------------|--------------------------------|
E |--------------------------------|--------------------------------|


e |--------12----------------------|--------------------------------|
B |15------------------------------|--------------------------------|
G |--------------------------------|--------------------------------|
D |--------------------------------|--------------------------------|
A |--------------------------------|--------------------------------|
E |--------------------------------|--------------------------------|


e |------------------------12------|--------------------------------|
B |15------------------------------|13----------------------15------|
G |--------------------------------|--------------------------------|
D |--------------------------------|--------------------------------|
A |--------------------------------|--------------------------------|
E |--------------------------------|--------------------------------|


e |--------------------------------|--------------------------------|
B |12------------------------------|--------------------------------|
G |--------------------------------|--------------------------------|
D |--------------------------------|--------------------------------|
A |--------------------------------|--------------------------------|
E |--------------------------------|--------------------------------|

        Part B

e |------------------------15------|12------------------------------|
B |15------------------------------|------------------------13------|
G |--------------------------------|--------------------------------|
D |--------------------------------|--------------------------------|
A |--------------------------------|--------------------------------|
E |--------------------------------|--------------------------------|


e |--------12----------------------|--------------------------------|
B |15------------------------------|--------------------------------|
G |--------------------------------|--------------------------------|
D |--------------------------------|--------------------------------|
A |--------------------------------|--------------------------------|
E |--------------------------------|--------------------------------|


e |------------------------12------|--------------------------------|
B |15------------------------------|13----------------------15------|
G |--------------------------------|--------------------------------|
D |--------------------------------|--------------------------------|
A |--------------------------------|--------------------------------|
E |--------------------------------|--------------------------------|


e |--------------------------------|--------------------------121416|
B |12------------------------------|--------------------121315------|
G |--------------------------------|--------------------------------|
D |--------------------------------|--------------------------------|
A |--------------------------------|--------------------------------|
E |--------------------------------|--------------------------------|

        Part C

e |17--------------------------15--|17------20------19------15------|
B |--------------------17--17------|--------------------------------|
G |--------------------------------|--------------------------------|
D |--------------------------------|--------------------------------|
A |--------------------------------|--------------------------------|
E |--------------------------------|--------------------------------|


e |17------------------------------|------------------------15------|
B |--------------------17--17--15--|17--------------17--------------|
G |--------------------------------|--------------------------------|
D |--------------------------------|--------------------------------|
A |--------------------------------|--------------------------------|
E |--------------------------------|--------------------------------|


e |15------------------------------|--------------------------------|
B |------------15------15--15--17--|18------18------17------15------|
G |--------------------------------|--------------------------------|
D |--------------------------------|--------------------------------|
A |--------------------------------|--------------------------------|
E |--------------------------------|--------------------------------|


e |--------------------------------|16------------------------------|
B |17------------------------------|--------------------------------|
G |--------------------------------|--------------------------------|
D |--------------------------------|--------------------------------|
A |--------------------------------|--------------------------------|
E |--------------------------------|--------------------------------|

        Part D

e |17--------------------------15--|17------20------19------15------|
B |--------------------17--17------|--------------------------------|
G |--------------------------------|--------------------------------|
D |--------------------------------|--------------------------------|
A |--------------------------------|--------------------------------|
E |--------------------------------|--------------------------------|


e |17------------------------------|--------------------------------|
B |--------------------17--17--15--|17------------------------------|
G |--------------------------------|--------------------------------|
D |--------------------------------|--------------------------------|
A |--------------------------------|--------------------------------|
E |--------------------------------|--------------------------------|


e |17------------------17--15------|--------------------------------|
B |----------------------------18--|17------15--------------15------|
G |--------------------------------|----------------17--------------|
D |--------------------------------|--------------------------------|
A |--------------------------------|--------------------------------|
E |--------------------------------|--------------------------------|


e |--------------------------------|--------------------------------|
B |17------------------------------|--------------------------------|
G |--------------------------------|--------------------------------|
D |--------------------------------|--------------------------------|
A |--------------------------------|--------------------------------|
E |--------------------------------|--------------------------------|

        Repeat back to Part A.





                        SECOND GUITAR (HARMONY)
        Intro

e |--3-----------5-8---7-----5---5-|
B |3---3-5-----------5---5-8-------|
G |--------5-2---------------------| x2
D |--------------------------------|
A |--------------------------------|
E |--------------------------------|


        Part A

e |--3-----------5-8---7-----5---5-|
B |3---3-5-----------5---5-8-------|
G |--------5-2---------------------| x6
D |--------------------------------|
A |--------------------------------|
E |--------------------------------|


e |--3-----------5-7---5-----7---7-|
B |3---3-5-----------5---5-8-------|
G |--------4-----------------------| x2
D |----------5---------------------|
A |--------------------------------|
E |--------------------------------|

        Part B

e |--3-----------5-8---7-----5---5-|
B |3---3-5-----------5---5-8-------|
G |--------5-2---------------------| x6
D |--------------------------------|
A |--------------------------------|
E |--------------------------------|


e |--3-----------5-7---5-----5---5-|--4-----------5-7---5---4-7---7-|
B |5---5-7-3---------5---5-8-------|5---5-7-3---------5---5---------|
G |----------4---------------------|----------4---------------------|
D |--------------------------------|--------------------------------|
A |--------------------------------|--------------------------------|
E |--------------------------------|--------------------------------|

        Part C

e |--5-7-8-7-5-----8-----7-----5---|--5-7-8-7-5-----5-----5-----8---|
B |5-------------5-----------------|5-------------5-----------------|
G |--------------------------------|--------------------------------|
D |--------------------------------|--------------------------------|
A |--------------------------------|--------------------------------|
E |--------------------------------|--------------------------------|


e |----5-7-5-------7-----5---------|----5-7-5-------------------7---|
B |5-8-------8---5-------------8---|5-8-------8---5-8-----8---------|
G |--------------------------------|--------------------------------|
D |--------------------------------|--------------------------------|
A |--------------------------------|--------------------------------|
E |--------------------------------|--------------------------------|


e |----5-8-7-5-----8-----7-----5---|----5-8-7-5-----5-----5-----8---|
B |5-6-----------6-----------------|5-6-----------6-----------------|
G |--------------------------------|--------------------------------|
D |--------------------------------|--------------------------------|
A |--------------------------------|--------------------------------|
E |--------------------------------|--------------------------------|


e |----4-7-5-4-----7-----5-----4---|----4-7-5-4-----4-----4-----7---|
B |5-7-----------5-----------------|3-5-----------5-----------------|
G |--------------------------------|--------------------------------|
D |--------------------------------|--------------------------------|
A |--------------------------------|--------------------------------|
E |--------------------------------|--------------------------------|

        Part D

e |--5-7-8-7-5-----8-----7-----5---|--5-7-8-7-5-----5-----5-----8---|
B |5-------------5-----------------|5-------------5-----------------|
G |--------------------------------|--------------------------------|
D |--------------------------------|--------------------------------|
A |--------------------------------|--------------------------------|
E |--------------------------------|--------------------------------|


e |----5-7-5-------7-----5---------|----5-7-5-------------------7---|
B |5-8-------8---5-------------8---|5-8-------8---5-8-----8---------|
G |--------------------------------|--------------------------------|
D |--------------------------------|--------------------------------|
A |--------------------------------|--------------------------------|
E |--------------------------------|--------------------------------|


e |--3-------------10--8---6-8---8-|
B |3---3-5-------10--6---6---------|
G |--------5-2---------------------| x2
D |--------------------------------|
A |--------------------------------|
E |--------------------------------|


e |--------------7-10--9-----7---7-|--4---4-------4-7---5---4-7---7-|
B |3-7-5-7-3---------7---7-10------|5---7-------------5---5---------|
G |----------4---------------------|--------7-4---------------------|
D |--------------------------------|--------------------------------|
A |--------------------------------|--------------------------------|
E |--------------------------------|--------------------------------|

        Repeat back to Part A.





                               BASS PART

Rest for two measures at the beginning.

        Part A

G |----------------|----------------|----------------|----------------|
D |------------2---|----------------|------------2---|----------------|
A |33----33--------|33----33--------|----------------|----------------|
E |----------3---3-|----------------|55----55--5---3-|55----55--------|


G |----------------|----------------|----------------|----------------|
D |33----33--------|33----33--------|22----22----4---|22----22--------|
A |----------3-----|----------------|----------2---2-|----------------|
E |------------5---|----------------|----------------|----------------|

        Part B     (same as Part A)

G |----------------|----------------|----------------|----------------|
D |------------2---|----------------|------------2---|----------------|
A |33----33--------|33----33--------|----------------|----------------|
E |----------3---3-|----------------|55----55--5---3-|55----55--------|


G |----------------|----------------|----------------|----------------|
D |33----33--------|33----33--------|22----22----4---|22----22--------|
A |----------3-----|----------------|----------2---2-|----------------|
E |------------5---|----------------|----------------|----------------|

        Part C

G |----------------|------------5---|----------------|------------4---|
D |33----33--------|33----33--------|22----22--------|22----22--------|
A |------------3---|----------3---3-|------------2---|----------2---2-|
E |----------------|----------------|----------------|----------------|


G |----------2-----|----------------|----------------|----------------|
D |--------------3-|------------3---|----------------|22----22--------|
A |55----55--------|55----55--5-----|44----44--4---5-|----------------|
E |----------------|----------------|----------------|----------------|

        Part D

G |----------------|------------5---|----------------|------------4---|
D |33----33--------|33----33--------|22----22--------|22----22--------|
A |------------3---|----------3---3-|------------2---|----------2---2-|
E |----------------|----------------|----------------|----------------|


G |----------------|----------------|----------------|----------------|
D |----------------|----------------|----------------|22----22--------|
A |11----11--------|11----11--------|22----22--------|----------------|
E |----------------|----------------|----------------|----------------|

        Repeat back to Part A.


Login or Register to remove this ad.

1 comment on Eternal Wind

Very nice, the melody is the

5

Very nice, the melody is the same way I have played it