Ads

Elia, the Maiden of Water (Final Fantasy III) Guitar Tab

Submitted: Dec 29, 2016 by chimatte (Last updated: Jan 30, 2017)

5
Average: 5 (1 vote)
Download | Listen
Game: Final Fantasy III
Composer(s): Nobuo Uematsu
Style: Arrangement, Fingerstyle
Series: Final Fantasy

Click here for a video example.

AutoScroll: Slow | Medium | Fast
ELIA THE MAIDEN OF WATER                                       
Final Fantasy III
Nobui Uematsu
Dropped D Tuning



     E  E  E  E  E  E      E  E  E  E  E  E     E  E  E  E  E  E     E  E  E  E  E  E   
E||--0-----7--------5--|--10-----------------|-----------0-----8--|--0--------------7--|
B||-----------6--------|---------8-----------|--------6-----6-----|--------5-----5-----|
G||--------5-----5-----|---------9-----------|--------7-----7-----|-----0--5--7--5-----|
D||-----7-----------7--|------9-----9-----9--|-----7-----7-----7--|-----------5-----5--|
A||--8-----------------|---7-----------7-----|--5-----------------|--3-----------------|
D||--------------------|---------------------|--------------------|--------------------|


  E  E  E  E  E  E      E  E  E  E  E  E     E  E  E  E  E  E     E  E   E  E  E  E   
--0-----7--------5--|--10-----------------|-----------0-----8--|--8------------------|
-----------6--------|---------8-----------|--------6-----6-----|--------10-----6-----|
--------5-----5-----|---------9-----------|--------7-----7-----|------------7--------|
-----7-----------7--|------9-----9-----9--|-----7-----7-----7--|---------7--------7--|
--8-----------------|---7-----------7-----|--5-----------------|-----8---------------|
--------------------|---------------------|--------------------|--8------------------|


  E  E  E  E  E  E     E  E  E  E  E  E     E  E  E  E  E  E     E  E  E  E  E  E   
--------------------|--0-----------------|--------------0--3--|--8-----8--------8--|
--------------5-----|-----------1--------|-----------1--------|--------5--------5--|
--7-----------5-----|--------0-----0-----|--------0-----------|-----5--------5-----|
-----0-----6--------|-----2-----------2--|-----2--------------|-----------7--------|
--------8--------8--|--3-----------------|--3-----------------|--0-----------------|
--6-----------------|--------------------|--------------------|--------------------|


  E  E  E  E  E  E     E  E  E  E  E  E     E  E  E  E  E  E     E  E  E  E  E  E   
--7-----7--------0--|--7-----5-----------|--------0-----------|--------------------|
--------5-----0-----|-----------6-----3--|--6--------3--1--0--|--1-----1--------3--|
-----5-----0--------|--------------5-----|--------------------|-----------2--------|
--------------------|--------3-----------|-----5--2-----------|--------2--------2--|
--------------------|-----3--------3-----|--3-----------------|--0--3--------3-----|
--5-----------------|--3-----------------|--------------------|--------------------|


  E  E  E  E  E  E      E  E   E  E  E  E     E  E  E  E  E  E     E  E  E  E  E  E   
--0-----0-----------|----------------------|--5-----------5--3--|--5-----------------|
--------------0--8--|--10-----10--------8--|--------------------|-----------2--------|
-----------0--------|----------------7-----|--------------3-----|--------2-----2-----|
--------------------|------0------7--------|-----------5--------|-----2-----------2--|
-----3--7--------7--|----------8-----------|--------5-----------|--0-----------------|
--5-----------------|---8------------------|--5--8--------------|--------------------|

 ____________________   ______________
| 1.                   | 2.
  E  E  E  E  E  E       H.             
---------------------||---------------||
--2------------------||--0------------||
-----2--------------*||--0------------||
--------2-----------*||--2------------||
-----------4--0------||--3------------||
-----------------2---||---------------||




Duration Legend
---------------
W - whole
H - half
Q - quarter
E - 8th
S - 16th
. - note dotted
|-n-|  - n-tuplets
Login or Register to remove this ad.