Dungeon (Final Fantasy III) Guitar Tab

Submitted: Oct 07, 2014 by JordanVS

0
Download | Listen
Game: Final Fantasy III
Composer(s): Nobuo Uematsu
Style: Arrangement, Fingerstyle
Series: Final Fantasy

AutoScroll: Slow | Medium | Fast
The Dungeon                                             
Final Fantasy III
Nobuo Uematsu
JordanVS

*4/4
*Tempo : 90

      Q    Q    Q    Q       Q    Q    Q    Q       Q    Q    Q    Q       Q    Q    Q    Q     
E||---0-------------------|----------------------|----------------------|----------------------|
B||------------------3----|--2---------0---------|----------------------|--0-------------------|
G||*-------1---------1----|-------0---------0----|--7--------------5----|------------2---------|
D||*--3---------3---------|--2---------2---------|-------4---------4----|-------3---------3----|
A||-----------------------|----------------------|--6---------6---------|--5---------5---------|
E||-----------------------|----------------------|----------------------|----------------------|


  Q    E  E  Q    Q       Q    Q    Q    Q       Q    E  E  Q    Q       Q    Q    Q    Q       
-----------------------|----------------------|-----------------------|-----------------------||
-----------------------|----------------------|-----------------------|-----------------------||
--1----------1---------|------------1----2----|--1----------1---------|--L-------------------*||
----------0-------2----|-------4--------------|----------1------------|----------------------*||
--3----------3---------|--1---------1---------|-------3----------3----|-------3---------3-----||
-----------------------|----------------------|--4----------4---------|--4---------4----------||


  E  E  E  E  E  E  E  E     E  E  E  E  E  E  E  E     E  E  E  E  E  E  E  E   
--------------0-----------|--1-----------------------|--------------0-----------|
--------------------------|--------------------------|--------------------------|
--------------------------|--------------------------|--------------------------|
--2--3--2--3--2--3--2--3--|--2--3--2--3--2--3--2--3--|--2--3--2--3--2--3--2--3--|
--------------------------|--------------------------|--------------------------|
--------------------------|--------------------------|--------------------------|


  E  E  E  E  E  E  E  E     E  E  E  E  E  E  E  E     E  E  E  E  E  E  E  E   
--------------------------|--------------0-----------|--1-----------------------|
--3-----------------------|--------------------------|--------------------------|
--------------------------|--------------------------|--------------------------|
--2--3--2--3--2--3--2--3--|--2--3--2--3--2--3--2--3--|--2--3--2--3--2--3--2--3--|
--------------------------|--------------------------|--------------------------|
--------------------------|--------------------------|--------------------------|


  E  E  E  E  E  E  E  E     E  E  E  E  E  E  E  E                
--------------4-----------|--7-----------------------|-----------||
--------------------------|--------------------------|-----------||
--------------------------|--------------------------|-----------||
--2--3--2--3--2--3--2--3--|--2--3--2--3--2--3--2--3--|-----------||
--------------------------|--------------------------|-----------||
--------------------------|--------------------------|-----------||




Duration Legend
---------------
W - whole
H - half
Q - quarter
E - 8th
S - 16th
T - 32nd
X - 64th
. - note dotted
|-n-|  - n-tuplets
Login or Register to remove this ad.