Deep Under The Water (Final Fantasy III) Guitar Tab

Submitted: Dec 04, 2010 by hashel (Last updated: Dec 04, 2010)

5
Average: 5 (1 vote)
Download | Listen
Game: Final Fantasy III
Composer(s): Nobuo Uematsu
Style: 2 or more instruments, Transcription
Series: Final Fantasy

This song is also called Submarine Nautilus

AutoScroll: Slow | Medium | Fast
Melody
     E  E  E  E  E  E  E  E       Q.     Q    E  Q.     Q.      
E||--------------------------||---2------L----0--5-------------|
B||-----------x-----------x--||-------------------------3------|
G||--------x-----------x-----||*-------------------------------|
D||-----x-----------x--------||*-------------------------------|
A||--x-----------x-----------||--------------------------------|
E||--------------------------||--------------------------------|


  H        E  E  Q.     Q.        E  E  E  H.           Q.      
-----------------0-------------|-------------------------------|
--2--------L--0---------0------|-----------5-------------------|
-------------------------------|--2--4--2---------------0------|
-------------------------------|-------------------------------|
-------------------------------|-------------------------------|
-------------------------------|-------------------------------|


  E  E  E  H.           E  E  E     Q.     Q    E  Q.     Q.      
---------------------------------|--2------L----0--5-------------|
-----------2------------0--2--3--|------------------------3------|
---------------------------------|-------------------------------|
--4--5--4------------------------|-------------------------------|
---------------------------------|-------------------------------|
---------------------------------|-------------------------------|


  Q.     Q    E  Q.     Q.        E  E  E  H.           Q.      
-----------------0-------------|-------------------------------|
--2------L----0---------0------|-----------5-------------------|
-------------------------------|--2--4--2---------------0------|
-------------------------------|-------------------------------|
-------------------------------|-------------------------------|
-------------------------------|-------------------------------|


  E  E  E  H.           E  E  E     E  E  E  H.           Q.      
---------------------------------|--2--3--2--5-------------------|
-----------2------------0--2--3--|------------------------3------|
---------------------------------|-------------------------------|
--4--5--4------------------------|-------------------------------|
---------------------------------|-------------------------------|
---------------------------------|-------------------------------|


  E  E  E  H.           Q.        E  E  E  H.           Q.      
-----------0-------------------|-----------2-------------------|
--2--3--2---------------0------|--2--3--2---------------2------|
-------------------------------|-------------------------------|
-------------------------------|-------------------------------|
-------------------------------|-------------------------------|
-------------------------------|-------------------------------|


  E  E  E  H.           Q.        E  E  E  H.           Q.      
-----0-------------------------|-------------------------------|
--2-----3--0-------------------|-----------3-------------------|
------------------------2------|--0--2--0---------------0------|
-------------------------------|-------------------------------|
-------------------------------|-------------------------------|
-------------------------------|-------------------------------|


  E  E  E  H.           Q    E     H.           Q.     Q.      
--------------------------------|-----------------------------|
-----------2--------------------|-----------------------------|
--------------------------------|--2-------------------4------|
--4--5--4---------------4----5--|---------------2-------------|
--------------------------------|-----------------------------|
--------------------------------|-----------------------------|


  H.           Q.     Q.        
------------------------------||
------------------------------||
--2------------L-------------*||
-----------------------------*||
------------------------------||
------------------------------||




Harmony
               E  E  E  E  E  E  E  E  E  E  E  E   
E||-------||---------------------------------------|
B||-------||---------0--3--0-----------0--3--0-----|
G||-------||*-----0-----------0-----0-----------0--|
D||-------||*--0-----------------0-----------------|
A||-------||---------------------------------------|
E||-------||---------------------------------------|


  E  E  E  E  E  E  E  E  E  E  E  E     E  E  E  E  E  E  E  E  E  E  E  E   
--------------------------------------|--------------------------------------|
--------0--1--0-----------0--1--0-----|-----------1-----------------1--------|
-----0-----------0-----0-----------0--|-----0--2-----2--0-----0--2-----2--0--|
--2-----------------2-----------------|--2-----------------2-----------------|
--------------------------------------|--------------------------------------|
--------------------------------------|--------------------------------------|


  E  E  E  E  E  E  E  E  E  E  E  E     E  E  E  E  E  E  E  E  E  E  E  E   
--------------------------------------|--------------------------------------|
--------0--1--0-----------0--1--0-----|--------0--3--0-----------0--3--0-----|
-----0-----------0-----0-----------0--|-----0-----------0-----0-----------0--|
--2-----------------2-----------------|--0-----------------0-----------------|
--------------------------------------|--------------------------------------|
--------------------------------------|--------------------------------------|


  E  E  E  E  E  E  E  E  E  E  E  E     E  E  E  E  E  E  E  E  E  E  E  E   
--------------------------------------|--------------------------------------|
--------0--1--0-----------0--1--0-----|-----------1-----------------1--------|
-----0-----------0-----0-----------0--|-----0--2-----2--0-----0--2-----2--0--|
--2-----------------2-----------------|--2-----------------2-----------------|
--------------------------------------|--------------------------------------|
--------------------------------------|--------------------------------------|


  E  E  E  E  E  E  E  E  E  E  E  E     E  E  E  E  E  E  E  E  E  E  E  E   
--------------------------------------|--------0--2--0-----------0--2--0-----|
-----------1-----------------1--------|-----0-----------0-----0-----------0--|
--------2-----2-----------2-----2-----|--0-----------------0-----------------|
--0--4-----------4--0--4-----------4--|--------------------------------------|
--------------------------------------|--------------------------------------|
--------------------------------------|--------------------------------------|


  E  E  E  E  E  E  E  E  E  E  E  E     E  E  E  E  E  E  E  E  E  E  E  E   
-----------3-----------------3--------|--------0--5--0-----------0--5--0-----|
-----0--2-----2--0-----0--2-----2--0--|-----2-----------2-----2-----------2--|
--0-----------------0-----------------|--------------------------------------|
--------------------------------------|--4-----------------4-----------------|
--------------------------------------|--------------------------------------|
--------------------------------------|--------------------------------------|


  E  E  E  E  E  E  E  E  E  E  E  E     E  E  E  E  E  E  E  E  E  E  E  E   
-----------1-----------------1--------|-----------0-----------------0--------|
-----0--3-----3--0-----0--3-----3--0--|-----0--3-----3--0-----0--3-----3--0--|
--------------------------------------|--0-----------------0-----------------|
--4-----------------4-----------------|--------------------------------------|
--------------------------------------|--------------------------------------|
--------------------------------------|--------------------------------------|


  E  E  E  E  E  E  E  E  E  E  E  E     E  E  E  E  E  E  E  E  E  E  E  E   
-----------0-----------------0--------|--------------------------------------|
--------2-----2-----------2-----2-----|--------0--3--0-----------0--3--0-----|
-----2-----------2-----2-----------2--|-----0-----------0-----0-----------0--|
--4-----------------4-----------------|--2-----------------2-----------------|
--------------------------------------|--------------------------------------|
--------------------------------------|--------------------------------------|


  E  E  E  E  E  E  E  E  E  E  E  E     
---------------------------------------||
--------0--2--0-----------0--2--0------||
-----0-----------0-----0-----------0--*||
--2-----------------2-----------------*||
---------------------------------------||
---------------------------------------||
Login or Register to remove this ad.