Dark Crystals (Final Fantasy III) Bass/Guitar Tab

Submitted: Dec 08, 2010 by hashel (Last updated: Aug 25, 2011)

0
Download | Listen
Game: Final Fantasy III
Composer(s): Nobuo Uematsu
Style: 2 or more instruments, Percussion, Transcription
Series: Final Fantasy

Click here for a video example.

AutoScroll: Slow | Medium | Fast
Melody
     Q    Q    Q    Q         W                   W                   H        H         
E||----------------------||--------------------|--7----------------|--5--------0--------|
B||-----------------x----||---0----------------|-------------------|--------------------|
G||------------x---------||*-------------------|-------------------|--------------------|
D||-------x--------------||*-------------------|-------------------|--------------------|
A||--x-------------------||--------------------|-------------------|--------------------|
E||----------------------||--------------------|-------------------|--------------------|


  W                   W                   W                   H        H         
--L----------------|-------------------|--3----------------|--2-----------------|
-------------------|--0----------------|-------------------|-----------2--------|
-------------------|-------------------|-------------------|--------------------|
-------------------|-------------------|-------------------|--------------------|
-------------------|-------------------|-------------------|--------------------|
-------------------|-------------------|-------------------|--------------------|


  W                   W                   W                   H        H         
-------------------|-------------------|--7----------------|--5--------0--------|
--L----------------|--0----------------|-------------------|--------------------|
-------------------|-------------------|-------------------|--------------------|
-------------------|-------------------|-------------------|--------------------|
-------------------|-------------------|-------------------|--------------------|
-------------------|-------------------|-------------------|--------------------|


  W                   W                   W                   W                 
--L----------------|-------------------|--3----------------|--2----------------|
-------------------|--0----------------|-------------------|-------------------|
-------------------|-------------------|-------------------|-------------------|
-------------------|-------------------|-------------------|-------------------|
-------------------|-------------------|-------------------|-------------------|
-------------------|-------------------|-------------------|-------------------|


  W                   W                   H        H           E   E  Q    H         
--2----------------|--7----------------|--3--------7--------|--9--10--9----5--------|
-------------------|-------------------|--------------------|-----------------------|
-------------------|-------------------|--------------------|-----------------------|
-------------------|-------------------|--------------------|-----------------------|
-------------------|-------------------|--------------------|-----------------------|
-------------------|-------------------|--------------------|-----------------------|


  W                   W                   H        H           Q    E  E  H         
--L----------------|--5----------------|--2--------5--------|--3----2--------------|
-------------------|-------------------|--------------------|----------3--L--------|
-------------------|-------------------|--------------------|----------------------|
-------------------|-------------------|--------------------|----------------------|
-------------------|-------------------|--------------------|----------------------|
-------------------|-------------------|--------------------|----------------------|


  H        Q    Q       W                   Q    Q    Q    Q       W                 
----------------0----|--2----------------|--0-------------------|-------------------|
--L--------3---------|-------------------|-------3----2---------|--0----------------|
---------------------|-------------------|-----------------2----|-------------------|
---------------------|-------------------|----------------------|-------------------|
---------------------|-------------------|----------------------|-------------------|
---------------------|-------------------|----------------------|-------------------|


  H        Q    Q       W                   Q    Q    Q    Q       W                 
----------------0----|--2----------------|--0-------------------|-------------------|
--L--------3---------|-------------------|-------3----2---------|--0----------------|
---------------------|-------------------|-----------------2----|-------------------|
---------------------|-------------------|----------------------|-------------------|
---------------------|-------------------|----------------------|-------------------|
---------------------|-------------------|----------------------|-------------------|


  W                   
--------------------||
--------------------||
--3----------------*||
-------------------*||
--------------------||
--------------------||



Chords
               W                   W                   W                 
E||-------||--------------------|-------------------|-------------------|
B||-------||---3----------------|--L----------------|--2----------------|
G||-------||*--4----------------|--L----------------|--2----------------|
D||-------||*--4----------------|--L----------------|--2----------------|
A||-------||---2----------------|--L----------------|--0----------------|
E||-------||--------------------|-------------------|-------------------|


  W                   W                   W                   W                 
-------------------|--3----------------|--L----------------|-------------------|
--2----------------|--3----------------|--L----------------|-------------------|
--2----------------|--0----------------|--L----------------|--2----------------|
--2----------------|--0----------------|--L----------------|--4----------------|
--0----------------|--2----------------|--L----------------|--4----------------|
-------------------|--3----------------|--L----------------|--2----------------|


  W                   W                   W                   W                 
--5----------------|-------------------|-------------------|-------------------|
--4----------------|--3----------------|--3----------------|--2----------------|
--5----------------|--4----------------|--4----------------|--2----------------|
--3----------------|--4----------------|--4----------------|--2----------------|
-------------------|--2----------------|--2----------------|--0----------------|
--0----------------|-------------------|-------------------|-------------------|


  W                   W                   W                   W                 
-------------------|--3----------------|--L----------------|-------------------|
--L----------------|--3----------------|--L----------------|-------------------|
--L----------------|--0----------------|--L----------------|--2----------------|
--L----------------|--0----------------|--L----------------|--4----------------|
--L----------------|--2----------------|--L----------------|--4----------------|
-------------------|--3----------------|--L----------------|--2----------------|


  W                   W                   W                   W                 
--5----------------|--3----------------|--L----------------|-------------------|
--4----------------|--3----------------|--L----------------|--2----------------|
--5----------------|--0----------------|--L----------------|--2----------------|
--3----------------|--0----------------|--L----------------|--2----------------|
-------------------|--2----------------|--L----------------|--0----------------|
--0----------------|--3----------------|--L----------------|-------------------|


  W                   W                   W                   W                 
-------------------|-------------------|-------------------|--3----------------|
--L----------------|-------------------|-------------------|--3----------------|
--L----------------|--2----------------|--L----------------|--0----------------|
--L----------------|--4----------------|--L----------------|--0----------------|
--L----------------|--4----------------|--L----------------|--2----------------|
-------------------|--2----------------|--L----------------|--3----------------|


  H.           Q       W                   W                   W                 
--L-----------------|-------------------|-------------------|--3----------------|
--L------------2----|--3----------------|--2----------------|--3----------------|
--L------------2----|--4----------------|--2----------------|--0----------------|
--L------------2----|--4----------------|--2----------------|--0----------------|
--L------------0----|--2----------------|--0----------------|--2----------------|
--L-----------------|-------------------|-------------------|--3----------------|


  H.           Q       W                   W                   W                 
--L-----------------|-------------------|-------------------|-------------------|
--L------------2----|--3----------------|--2----------------|--5----------------|
--L------------2----|--4----------------|--2----------------|--3----------------|
--L------------2----|--4----------------|--2----------------|--5----------------|
--L------------0----|--2----------------|--0----------------|--3----------------|
--L-----------------|-------------------|-------------------|-------------------|


  W                   
--------------------||
--------------------||
--4----------------*||
--2----------------*||
--4-----------------||
--2-----------------||



Bass
               |-----3----|    |-----3----|       |-----3----|    |-----3----|     
               Q    Q     Q    Q    Q     Q       Q    Q     Q    Q    Q     Q     
G||-------||---4----7----11----4----7----11----|--4----7----11----4----7----11----|
D||-------||*----------------------------------|----------------------------------|
A||-------||*----------------------------------|----------------------------------|
E||-------||-----------------------------------|----------------------------------|


  |----3----|    |----3----|       |----3----|    |----3----|     
  Q    Q    Q    Q    Q    Q       Q    Q    Q    Q    Q    Q     
--2----6----9----2----6----9----|--2----6----9----2----6----9----|
--------------------------------|--------------------------------|
--------------------------------|--------------------------------|
--------------------------------|--------------------------------|


  |----3----|    |----3----|       |----3----|    |----3----|     
  Q    Q    Q    Q    Q    Q       Q    Q    Q    Q    Q    Q     
--0----4----7----0----4----7----|--0----4----7----0----4----7----|
--------------------------------|--------------------------------|
--------------------------------|--------------------------------|
--------------------------------|--------------------------------|


  |----3----|    |----3----|       |----3----|    |----3----|     
  Q    Q    Q    Q    Q    Q       Q    Q    Q    Q    Q    Q     
-------2----5---------2----5----|-------3----6----9----8----6----|
--4--------------4--------------|--2-----------------------------|
--------------------------------|--------------------------------|
--------------------------------|--------------------------------|


  |-----3----|    |-----3----|       |-----3----|    |-----3----|     
  Q    Q     Q    Q    Q     Q       Q    Q     Q    Q    Q     Q     
--4----7----11----4----7----11----|--4----7----11----4----7----11----|
----------------------------------|----------------------------------|
----------------------------------|----------------------------------|
----------------------------------|----------------------------------|


  |----3----|    |----3----|       |----3----|    |----3----|     
  Q    Q    Q    Q    Q    Q       Q    Q    Q    Q    Q    Q     
--2----6----9----2----6----9----|--2----6----9----2----6----9----|
--------------------------------|--------------------------------|
--------------------------------|--------------------------------|
--------------------------------|--------------------------------|


  |----3----|    |----3----|       |----3----|    |----3----|     
  Q    Q    Q    Q    Q    Q       Q    Q    Q    Q    Q    Q     
--0----4----7----0----4----7----|--0----4----7----0----4----7----|
--------------------------------|--------------------------------|
--------------------------------|--------------------------------|
--------------------------------|--------------------------------|


  |----3----|    |----3----|                                                       
  Q    Q    Q    Q    Q    Q       Q    Q    Q    Q       E  E  E  E  E  E  E  E   
-------2----6---------2----6----|--9----7----6----3----|--0--0--------0--0--------|
--4--------------4--------------|----------------------|-----------0-----------0--|
--------------------------------|----------------------|--------------------------|
--------------------------------|----------------------|--------------------------|


  E  E  E  E  E  E  E  E     E  E  E  E  E  E  E  E     E  E  E  E  E  E  E  E   
--0--0--------0--0--------|--2--2--------2--2--------|--2--2--------2--2--------|
-----------0-----------0--|-----------2-----------2--|-----------2-----------2--|
--------------------------|--------------------------|--------------------------|
--------------------------|--------------------------|--------------------------|


  E  E  E  E  E  E  E  E     E  E  E  E  E  E  E  E     E  E  E  E  E  E  E  E   
--------------------------|--------------------------|--0--0--------0--0--------|
--4--4--------4--4--------|--4--4--------4--4--------|-----------0-----------0--|
-----------3-----------3--|-----------3-----------3--|--------------------------|
--------------------------|--------------------------|--------------------------|


  E  E  E  E  Q    Q       E  E  E  E  E  E  E  E     E  E  E  E  E  E  E  E   
--0--0------------------|--------------------------|--------------------------|
-----------0------------|-----4-----4-----4-----4--|-----2-----2-----2-----2--|
-------------------0----|--2-----2-----2-----2-----|--0-----0-----0-----0-----|
--------------3---------|--------------------------|--------------------------|


  E  E  E  E  E  E  E  E     E  E  E  E  Q    Q       E  E  E  E  E  E  E  E   
--------------------------|------------------------|--------------------------|
-----0-----0-----0-----0--|-----0-----0------------|-----4-----4-----4-----4--|
--------------------------|-------------------0----|--2-----2-----2-----2-----|
--3-----3-----3-----3-----|--3-----3-----3---------|--------------------------|


  E  E  E  E  E  E  E  E     E  E  E  E  E  E  E  E     Q    Q    Q    Q       
--------------------------|--------------------------|-------9----7----6-----||
-----2-----2-----2-----2--|--------------------------|--4-------------------*||
--0-----0-----0-----0-----|--3--3-----3--3--3-----3--|----------------------*||
--------------------------|--------------------------|-----------------------||


Notes : 
1) Maybe some mistakes in the chords part, plz if it doesn't sounds right to you, let me know where :)
2) Some parts of the bass part are easier to play on lower strings :$
3) i hope the drums are good ^^

Enjoy :D
Login or Register to remove this ad.