Cute Little Tozas (Final Fantasy III) Guitar Tab

Submitted: Oct 19, 2014 by JordanVS

5
Average: 5 (1 vote)
Download | Listen
Game: Final Fantasy III
Composer(s): Nobuo Uematsu
Style: Arrangement, Fingerstyle
Series: Final Fantasy

This song is also called Village of Little People / Tozas

AutoScroll: Slow | Medium | Fast
Cute Little Tozas                                           
Village of Little People, Tozas
Final Fantasy III
Nobuo Uematsu                                                               
JordanVS

-4/4
-Tempo : 96
			*Segno

     H.           E  E       Q    Q    Q    Q       E  E  E  E  Q    Q       Q    E  E  Q    Q     
E||---------------------||------------------1----|--0--1--0--1--0---------|-----------------------|
B||---------------1-----||--------1----3---------|-------------------3----|--1----1--3--1---------|
G||------------------3--||*--2-------------------|------------------------|------------------0----|
D||---------------------||*--3-------------------|--3---------------------|--3--------------------|
A||---------------------||--------3----0----3----|--------3-----0----3----|-------3-----0----3----|
E||---------------------||-----------------------|------------------------|-----------------------|


  Q    Q    Q    E  E     Q    Q    E  E  E  E     Q    Q    Q    E  E     Q    Q    E  E  E  E   
-----------------------|------------------------|-----------------------|------------------------|
-----------------------|------------------------|-----------------------|------------------------|
--2--------------0--2--|--3----3----3--2--0-----|--0--------------0--2--|--3----3----3--2--0-----|
--3--------------------|--5----0----3--------3--|--2--------------------|--5----0----3--------3--|
-------3----0----3-----|------------------5-----|-------3----0----3-----|------------------5-----|
-----------------------|------------------------|-----------------------|------------------------|


  Q    Q    Q    E  E       Q    Q    Q    Q       Q    Q    Q    E  E     E  E  E  E  Q    Q     
------------------------||----------------------|--1-----------------1--|--0--1--3--0------------|
------------------------||----------------------|------------3----------|--------------1---------|
--0--------------5--3--*||--0-------------------|-------3---------3-----|--------0----------0----|
--2--------------------*||--2-------------------|-----------------------|------------------------|
-------3----0----3------||-------3----0----3----|--1--------------------|--3---------------------|
------------------------||----------------------|-----------------------|------------------------|


  E  E  Q    E  E  Q       Q    Q    Q    Q       Q    Q    Q    E  E     E  E  E  E  Q    E  E   
------------------------|----------------------|--1-----------------1--|--0--1--3--0----------0--|
-----1--3---------------|------------0----1----|------------3----------|--------------1----3-----|
--3-----3----0--2--3----|--2----3--------------|-------3---------3-----|--------0----------0-----|
--0---------------------|--3----2----0---------|-----------------------|-------------------------|
-------------3----------|-----------------3----|--1--------------------|--3----------------------|
------------------------|----------------------|-----------------------|-------------------------|

					*Da Segno
                                                     ^                  
  E  E  E  E  E  E  E  E     Q    Q    Q    E  E     W                  
--1--0--------------------|-----------------------|-------------------||
--------3--1--------------|-----------------1-----|-------------------||
--------------3--2--0-----|--------------------3--|--2----------------||
-----------------------3--|--2--------------------|--3----------------||
--------0-----1-----2-----|--3---------3----------|--3----------------||
--3-----------------------|-----------------------|--1----------------||




Duration Legend
---------------
W - whole
H - half
Q - quarter
E - 8th
S - 16th
T - 32nd
X - 64th
. - note dotted
|-n-|  - n-tuplets


Tablature Legend
----------------
L - tied note
^ - brush up
v - brush down
Login or Register to remove this ad.