Crystal Tower (Final Fantasy III) Guitar Tab

Submitted: Sep 15, 2014 by JordanVS

5
Average: 5 (1 vote)
Download | Listen
Game: Final Fantasy III
Composer(s): Nobuo Uematsu
Style: 2 or more instruments, Arrangement, Fingerstyle
Series: Final Fantasy

This song is also called Sylx Tower

AutoScroll: Slow | Medium | Fast
The Crystal Tower                                           
Crystal Tower/Sylx Tower
Final Fantasy III
Nobuo Uematsu      
JordanVS               

-Tempo : 152


-Guitar 1

   2/4			  4/4
          |--3--| |--3--|                                                                     
     Q    S  S  S S  S  S    H        H           Q    Q    Q    Q       Q.     E  Q    Q     
E||-----------------------|-----------0--------|----------------------|----------------------|
B||-----------------------|--------------------|--3----1----0---------|-----------------0----|
G||-----------------------|--2-----------------|-----------------2----|--0------0--2---------|
D||---------------2h-4h-5-|--------------------|--0-------------------|--2-------------------|
A||-------2h-3h-5---------|--0-----------------|----------------------|----------------------|
E||-----------------------|--------------------|----------------------|----------------------|


  H.           Q       Q    S  S  S  S S S S S S S S S    H        Q    Q     
--------------------|-------8----------7-------5-------|-----------3---------|
--------------------|---------10---------8-------6-----|--5------------------|
--2-----------------|------------10--------9-------7---|---------------------|
--3-----------------|---------------10-------9-------7-|----------------2----|
--------------------|-------8----------7-------5-------|--3------------------|
--------------------|----------------------------------|---------------------|


                                                                 |--3--| |--3--|  
  Q    Q    Q    Q       E  E  Q    E  E  Q       Q    Q    Q    S  S  S S  S  S  
--2----3----2---------|--0---------------------|--0----------------------0h-2h-3-|
-----------------3----|--0---------------------|--0--------------0h-1h-3---------|
----------------------|--2---------------------|--1------------------------------|
--0---------4---------|--2--2-------2--2-------|--2---------0----2---------------|
----------------------|------------------------|-------2-------------------------|
----------------------|------------------------|---------------------------------|


  E  E  E  E  E  E  E  E     E  E  E  E  E  E  E  E     E  E  E  E  E  E  E  E   
--5-----------------5-----|--0-----------3-----------|--1-----------0-----------|
--------------------------|--------------------------|--------------------3-----|
--------------------------|--------------------------|--------------------------|
--3-----3-----3-----3-----|--2-----2-----2-----2-----|--0-----0-----0-----0-----|
-----3-----3-----3-----3--|-----2-----2-----2-----2--|-----0-----0-----0-----0--|
--------------------------|--------------------------|--------------------------|


  E  E  E  E  E  E  E  E     E  E  E  E  E  E  E  E     E  E  E  E  E  E  E  E   
--0-----------------------|--------------0-----------|--------------------------|
--------------1-----------|--3-----------------3-----|--------------1-----------|
-----0-----0-----0-----0--|-----2-----2-----2-----2--|--2-----------------------|
--------------------------|--0-----0-----0-----0-----|-----2-----2-----2-----2--|
--3-----3-----3-----3-----|--------------------------|--0-----0-----0-----0-----|
--------------------------|--------------------------|--------------------------|


  E  E  E  E  E  E  E  E     E  E  E  E  E  E  E  E     E  E  E  E  E  E  E  E   
--------0-----------------|--------------------------|--------------0-----------|
--3-----------3-----------|--------------------1-----|--3-----------------3-----|
--------------------------|--2-----------------------|-----4-----4-----4-----4--|
-----3-----3-----3-----3--|--3-----3-----3-----3-----|--------------------------|
--1-----1-----1-----1-----|-----3-----3-----3-----3--|--2-----2-----2-----2-----|
--------------------------|--------------------------|--------------------------|


  E  E  E  E  E  E  E  E     E  E  E  E  E  E  E  E     E  E  E  E  E  E  E  E   
--------------------------|--------------------------|--0-----------L-----------|
--------------1-----------|--0-----------------0-----|--0-----------L-----------|
--2-----------------------|-----2-----2-----2-----2--|--2-----------1-----------|
-----3-----3-----3-----3--|--------------------------|--2-----2-----2-----2-----|
--1-----1-----1-----1-----|--0-----0-----0-----0-----|-----2-----2-----2-----2--|
--------------------------|--------------------------|--------------------------|


  E  E  E  E  E  E  E  E     E  E  E  E  E  E  E  E     E  E  E  E  E  E  E  E   
--------------0-----------|--------------------------|--------------------------|
--------------------------|--3-----1-----0-----------|--------------------0-----|
--2-----------------2-----|-----2-----2--------2-----|--0--------0--2-----------|
-----2-----2-----2-----2--|--0--------------0-----0--|--------2--------------2--|
--0-----0-----0-----------|--------------------------|-----2-----------2--------|
--------------------------|--------------------------|--0-----------------------|


                                   ^    ^    ^                                
  E  E  E  E  E  E  E  E     Q     Q    Q    Q       E  E  E  E  E  E  E  E   
-----------------------1--|--------8----7----5----|--------------3-----------|
--------------------1-----|-------10----8----6----|--5--------------5-----5--|
--2--------2-----2--------|-------10----9----7----|-----5-----5--------5-----|
--------3-----3-----------|-----------------------|--------5-----------------|
-----3--------------------|--------8----7----5----|--3-----------3-----------|
--1-----------------------|-----------------------|--------------------------|


  E  E  E  E  E  E  E  E     E  E  E  E  E  E  E  E     E  E  E  E  E  E  E  E   
--2-----3-----2-----------|--0--------0-----0--------|--0-----------2-----4-----|
-----3-----3--------3-----|--------0-----0-----0-----|--------0--------0-----0--|
-----------------2-----2--|-----2-----------------2--|-----1-----1--------------|
--0-----------0-----------|--2-----------------------|--2-----------------------|
--------------------------|--------------------------|--------------------------|
--------------------------|--------------------------|--------------------------|


  W                  
--5----------------||
--5----------------||
--5----------------||
-------------------||
--0----------------||
-------------------||



-Guitar 2
*Capo on the 5th fret

             E  E  E  E  E  E  E  E     E  E  E  E  E  E  E  E     E  E  E  E  E  E  E  E   
E||-------|-----------------0--------|--0-----------------------|--------------------------|
B||-------|--0-----------0-----0-----|-----1--------1-----------|-----------------------3--|
G||-------|-----0-----0-----------0--|--------2--------2-----2--|--4-----------4-----4-----|
D||-------|--------2-----------------|-----------2--------2-----|-----4-----4-----4--------|
A||-------|--------------------------|--------------------------|--------5-----------------|
E||-------|--------------------------|--------------------------|--------------------------|


  E  E  E  E  E  E  E  E     E  E  E  E  E  E  E  E     E  E  E  E  E  E  E  E   
--------------------------|--------0-----------------|--------------------------|
--1-----------1-----------|--1-----------3-----1-----|--0-----------0-----------|
-----0-----0-----0-----0--|-----0-----0-----0-----0--|-----0-----0-----0-----0--|
--------2-----------2-----|--------------------------|--------0-----------0-----|
--------------------------|--------------------------|--------------------------|
--------------------------|--------------------------|--------------------------|


  E  E  E  E  E  E  E  E     E  E  E  E  E  E  E  E     E  E  E  E  E  E  E  E   
--------------------------|-----------0--------0-----|--------------------------|
--2-----------2-----------|--0-----------0--------0--|--4--------4-----------4--|
-----2-----2-----2-----2--|--------------------------|-----4--------4-----4-----|
--------2-----------2-----|-----4-----------4--------|--------4--------4--------|
--------------------------|--------7-----------------|--------------------------|
--------------------------|--------------------------|--------------------------|


  H        E  E  E  E     H        E  E  E  E     H        E  E  E  E     Q    Q    Q    Q     
-----------------------|-----------------------|--0--------L--------0--|--2----0--------------|
-----------------0--1--|--3--------L--0--1--3--|--------------1--3-----|------------3----0----|
--5--------L--2--------|-----------------------|-----------------------|----------------------|
-----------------------|-----------------------|-----------------------|----------------------|
-----------------------|-----------------------|-----------------------|----------------------|
-----------------------|-----------------------|-----------------------|----------------------|


  E  E  E  E  E  E  E  E     E  E  E  E  E  E  E  E     E  E  E  E  E  E  E  E   
--------------------------|--------------------------|--------------------------|
--1-----0-----1-----0-----|--0-----------0-----------|--1-----0-----1-----0-----|
-----2-----2-----2-----2--|-----0--2--0-----0--2--0--|-----2-----2-----2-----2--|
--------------------------|--------------------------|--------------------------|
--------------------------|--------------------------|--------------------------|
--------------------------|--------------------------|--------------------------|


  E  E  E  E  E  E  E  E     E  E  E  E  E  E  E  E     E  E  E  E  E  E  E  E   
--------------------------|--------------------------|--------------------------|
--0-----------0-----------|--1-----0-----1-----0-----|--1-----0-----1-----0-----|
-----0--2--0-----0--2--0--|-----2-----2-----2-----2--|-----2-----2-----2-----2--|
--------------------------|--------------------------|--------------------------|
--------------------------|--------------------------|--------------------------|
--------------------------|--------------------------|--------------------------|


                                                        ^                   ^                 
  E  E  E  E  E  E  E  E     E  E  E  E  E  E  E  E     W                   W                 
--------------------------|--------------0-----2-----|-------------------|-------------------|
--2-----0-----2-----0-----|--4-----0-----------------|--0----------------|--1----------------|
-----3-----3-----3-----3--|-----2-----2-----2-----2--|--0----------------|--2----------------|
--------------------------|--------------------------|--2----------------|--2----------------|
--------------------------|--------------------------|--2----------------|--0----------------|
--------------------------|--------------------------|--0----------------|-------------------|


  ^                   ^                                                   ^                 
  W                   W                   Q    S S S S S S S S S S S S    W                 
-------------------|-------------------|-------3-------2-------0-------|-------------------|
--3----------------|--1----------------|---------5-------3-------1-----|--3----------------|
--4----------------|--0----------------|-----------5-------4-------2---|--4----------------|
--4----------------|--2----------------|-------------5-------4-------2-|--5----------------|
--2----------------|--3----------------|-------------------------------|--5----------------|
-------------------|-------------------|-------------------------------|--3----------------|


  ^                   ^                   ^                   ^                  
  W                   W                   W                   W                  
-------------------|-------------------|-------------------|-------------------||
--2----------------|--0----------------|--0----------------|-------------------||
--2----------------|-------------------|-------------------|-------------------||
--2----------------|--2----------------|--1----------------|--2----------------||
--0----------------|--2----------------|--2----------------|--2----------------||
-------------------|-------------------|-------------------|--0----------------||




Duration Legend
---------------
W - whole
H - half
Q - quarter
E - 8th
S - 16th
T - 32nd
X - 64th
. - note dotted
|-n-|  - n-tuplets


Tablature Legend
----------------
L - tied note
^ - brush up
v - brush down
Login or Register to remove this ad.