Ads

Crystal Tower (Final Fantasy III) Guitar Tab

Submitted: Sep 06, 2009 by Jacob31593 (Last updated: Sep 06, 2009)

5
Average: 5 (3 votes)
Download | Listen
Game: Final Fantasy III
Composer(s): Nobuo Uematsu
Style: 2 or more instruments, Transcription
Series: Final Fantasy

AutoScroll: Slow | Medium | Fast
Crystal Tower from Final Fantasy III
Composed by Nobuo Uematsu
Tabbed by Jacob31593
Sept. 6th 2009

The second guitar may seem a bit weird, but thats the way i like to play it :)
160 BPM


This is the intro measure, 1/4 time signature
     |-3-| |-3-| 
     S S S S S S
E||--------------|
B||--------5-7-9-|
G||--4-5-7-------|
D||--------------|
A||--------------|
E||--------------|

The rest of the song is in 4/4, the song repeats back to here

    H         H            Q     Q     Q     Q        Q     E   E   Q     Q     
|---5--------12--------|--10----------------------|----------------------------|
|----------------------|--------13----12----10----|----------------10----12----|
|*---------------------|--------------------------|--12-----L--12--------------|
|*---------------------|--------------------------|----------------------------|
|----------------------|--------------------------|----------------------------|
|----------------------|--------------------------|----------------------------|


   W                   Q     S  S  S  S  S  S  S  S  S  S  S  S     H         H         
--------------------|-------20-17-------19-15-------17-13-------|--12--------15--------|
--10----------------|-------------18----------17----------13----|----------------------|
--------------------|----------------17----------16----------14-|----------------------|
--------------------|-------------------------------------------|----------------------|
--------------------|-------------------------------------------|----------------------|
--------------------|-------------------------------------------|----------------------|


                                                                |--3--|  |--3--|                         
   Q     Q     Q     Q        W                   H.            S  S  S  S  S  S     H.            Q     
--14----15----14----------|--------------------|---------------------------------|--17------------17----|
--------------------15----|--17----------------|------------------------17-19-21-|----------------------|
--------------------------|--------------------|---------------16-17-19----------|----------------------|
--------------------------|--------------------|---------------------------------|----------------------|
--------------------------|--------------------|---------------------------------|----------------------|
--------------------------|--------------------|---------------------------------|----------------------|


   H         H            H         Q     Q        H        H            H         Q     Q     
--12--------15--------|--13--------12----10----|--12--------8--------|--10--------12----10----|
----------------------|------------------------|---------------------|------------------------|
----------------------|------------------------|---------------------|------------------------|
----------------------|------------------------|---------------------|------------------------|
----------------------|------------------------|---------------------|------------------------|
----------------------|------------------------|---------------------|------------------------|


   H         H            Q     Q     H            H.            Q        H         Q     Q     
----------------------|--10----12----10--------|----------------------|--10--------12----10----|
--10--------13--------|------------------------|--10------------13----|------------------------|
----------------------|------------------------|----------------------|------------------------|
----------------------|------------------------|----------------------|------------------------|
----------------------|------------------------|----------------------|------------------------|
----------------------|------------------------|----------------------|------------------------|


                                       |--3--| |--3--|                         
   H         H            H.           S  S  S S  S  S     W                 Repeat
----------------------|------------------------9-10-11-|--12-----------------||
--10--------13--------|--12------------9-10-12---------|---------------------||
----------------------|--------------------------------|--------------------*||
----------------------|--------------------------------|--------------------*||
----------------------|--------------------------------|---------------------||
----------------------|--------------------------------|---------------------||




Duration Legend
---------------
W - whole
H - half
Q - quarter
E - 8th
S - 16th
. - note dotted
|-n-|  - n-tuplets


Tablature Legend
----------------
L - tied note


Guitar 2

Starts after the intro measure

    E   E  E   E  E   E  E   E      E   E  E  E   E  E  E  E     E  E   E  E  E  E  E  E   
|-------------------------------|-----------------------------|---------------------------|
|--------------------10---------|--10-------------------------|------------------------8--|
|*--9-------------9------9------|------10--7-----10--7-----7--|--9------------9-----9-----|
|*-----10--7--10------------10--|-------------7---------7-----|-----9------9-----9--------|
|-------------------------------|-----------------------------|--------10-----------------|
|-------------------------------|-----------------------------|---------------------------|

   E   E  E   E   E   E  E   E      E   E   E   E   E   E   E   E     E   E   E   E  E   E   E   E   
--------------------------------|----------------------------------|--------------------------------|
--------------------------------|----------10----------------------|--------------------------------|
--10-------------10-------------|--10--------------12------10------|--9--------------9--------------|
------10--7--10------10--7--10--|------10------10------10------10--|-----10------10-----10------10--|
--------------------------------|----------------------------------|---------10-------------10------|
--------------------------------|----------------------------------|--------------------------------|


   E   E  E  E  E  E  E  E     E  E  E   E  E  E   E  E     E  E  E  E  E  E  E  E   
----------------------------|----------------------------|--------------------------|
----------------7-----------|-----------10--------10-----|--9--------9-----------9--|
--11---------7-----7-----7--|--9------------9---------9--|-----9--------9-----9-----|
------12--7-----------7-----|-----9--7---------9---------|--------9--------9--------|
----------------------------|----------------------------|--------------------------|
----------------------------|----------------------------|--------------------------|


   H        E  E  E   E     H        E  E   E   E      H        E   E   E   E   
-------------------------|-------------------------|---------------------------|
-------------------------|--8--------L-------------|--10--------L--------------|
--10--------L--7--9--10--|--------------9--10--12--|---------------10--12--14--|
-------------------------|-------------------------|---------------------------|
-------------------------|-------------------------|---------------------------|
-------------------------|-------------------------|---------------------------|


   Q     Q     Q    Q        E   E   E   E   E   E   E   E     E   E   E   E  E   E   E   E   
-------------------------|----------------------------------|--------------------------------|
--12----10---------------|----------------------------------|--------------------------------|
--------------12----9----|--10--------------10--------------|--9--------------9--------------|
-------------------------|------12--14--12------12--14--12--|-----10--12--10-----10--12--10--|
-------------------------|----------------------------------|--------------------------------|
-------------------------|----------------------------------|--------------------------------|


   E   E   E   E   E   E   E   E     E   E   E   E  E   E   E   E      E   E   E   E   E   E   E   E   
----------------------------------|--------------------------------|----------------------------------|
----------------------------------|--------------------------------|----------------------------------|
--10--------------10--------------|--9--------------9--------------|--10--------------10--------------|
------12--14--12------12--14--12--|-----10--12--10-----10--12--10--|------12--14--12------12--14--12--|
----------------------------------|--------------------------------|----------------------------------|
----------------------------------|--------------------------------|----------------------------------|


   E   E   E   E   E   E   E   E      E   E   E   E   E   E   E   E   
----------------------------------|----------------------------------|
----------------------------------|----------------------------------|
--10--------------10--------------|--11--------------11--------------|
------12--14--12------12--14--12--|------13--14--13------13--14--13--|
----------------------------------|----------------------------------|
----------------------------------|----------------------------------|


   E   E   E   E   E   E   E   E   Repeat
-----------------------------------||
-----------------------------------||
--13--------------14------16------*||
------12--14--12------12------12--*||
-----------------------------------||
-----------------------------------||




Duration Legend
---------------
W - whole
H - half
Q - quarter
E - 8th
S - 16th
T - 32nd
X - 64th
. - note dotted
|-n-|  - n-tuplets


Tablature Legend
----------------
L - tied note
Login or Register to remove this ad.

1 comment on Crystal Tower

Sir Jacob, it sounds

5

Sir Jacob, it sounds excelent! It couldn't have been better, in my opinion. I liked the second guitar very much, it made the arrangement pretty solid.

However, I would have to go one octave lower in order to play this. My guitar is little-fretted.

Thank you for sharing it with us!