Crystal Room (Final Fantasy III) Guitar Tab

Submitted: Sep 08, 2014 by JordanVS

0
Download | Listen
Game: Final Fantasy III
Composer(s): Nobuo Uematsu
Style: Arrangement, Fingerstyle
Series: Final Fantasy

AutoScroll: Slow | Medium | Fast
Crystal Room                                             
Final Fantasy III
Nobuo Uematsu
JordanVS

-4/4
-Tempo : 95

-Capo on the 7th fret

      E  E  E  E  E  E  E  E     E  E  E  E  E  E  E  E     E  E  E  E  E  E  E  E   
E||---------------------0--4--|-----------------------0--|--------------------0--4--|
B||------------------2--------|-----------------0--2-----|-----------------2--------|
G||*-----------1--3-----------|--------------0-----------|-----------1--3-----------|
D||*--------2-----------------|-----------4--------------|--------2-----------------|
A||---1--4--------------------|-----2--4-----------------|--1--4--------------------|
E||---------------------------|--3-----------------------|--------------------------|


  E  E  E  E  E  E  E  E     E  E  E  E  E  E  E  E     E  E  E  E  E  E  E  E   
-----------------------0--|--------------------5--7--|-----------------0--3--7--|
-----------------0--2-----|-----------0--3--6--------|-----------0--2-----------|
--------------0-----------|--------2-----------------|--------0-----------------|
-----------4--------------|--0--3--------------------|-----2--------------------|
-----2--4-----------------|--------------------------|--4-----------------------|
--3-----------------------|--------------------------|--------------------------|


  E  E  E  E  E  E  E  E     E  E  E  E  E  E  E  E  90x
--------------------5--7--|-----------------0--3--7---||
-----------0--3--6--------|-----------0--2------------||
--------2-----------------|--------0-----------------*||
--0--3--------------------|-----2--------------------*||
--------------------------|--4------------------------||
--------------------------|---------------------------||




Duration Legend
---------------
W - whole
H - half
Q - quarter
E - 8th
S - 16th
T - 32nd
X - 64th
. - note dotted
|-n-|  - n-tuplets


Login or Register to remove this ad.