Ads

Chocobo Theme (Final Fantasy III) Guitar Tab

Submitted: Sep 11, 2009 by TheDoomOfAllFires

5
Average: 5 (3 votes)
Download | Listen
Game: Final Fantasy III
Composer(s): Nobuo Uematsu
Style: 2 or more instruments, Arrangement
Series: Final Fantasy

AutoScroll: Slow | Medium | Fast
Final Fantasy III - Chocobo Theme
Arranged by TheDoomOfAllFires; 09/11/2009

BPM=75
Standard tuning


Hope you like it ! ^^



Guitar #1 :

      E  S S S E  S S S S S E  S S    E  S S S E  S S S S S E  E   
E||--------------------------------|------------------------------|
B||------3-----1--1---3---3----1---|-----3-----1--1---3---3----1--|
G||*-----4-----2--2---4---4----2---|-----4-----2--2---4---4----2--|
D||*-------------------------------|------------------------------|
A||--------------------------------|------------------------------|
E||---3----3-1------3---3---1----1-|--3----3-1------3---3---1-----|


  E  S S S E  S S S S S E  S S    E  S S S E  S S S S S E  E   
-------------------------------|------------------------------|
-----3-----1--1---3---3----1---|-----3-----1--1---3---3----1--|
-----4-----2--2---4---4----2---|-----4-----2--2---4---4----2--|
-------------------------------|------------------------------|
-------------------------------|------------------------------|
--3----3-1------3---3---1----1-|--3----3-1------3---3---1-----|


  E  S S S E  S S S S S E  S S    E  S S S E  S S S S S S S S S  
-------------------------------|-----0-----2------3---3---2---2-|
-----3-----1--1---3---3----1---|-----1-----3------3---3---3---3-|
-----4-----2--2---4---4----2---|----------------0---0-----------|
-------------------------------|---------0----0---------4---0---|
-------------------------------|--3----3------------------------|
--3----3-1------3---3---1----1-|--------------------------------|


  E  S S S E  S S S S S S S S S    E  S S S E  S S S S S S S S S  
-----0-----2------3---3---2---2-|-----0-----2------3---3---2---2-|
-----1-----3------3---3---3---3-|-----1-----3------3---3---3---3-|
----------------0---0-----------|----------------0---0-----------|
---------0----0---------4---0---|---------0----0---------4---0---|
--3----3------------------------|--3----3------------------------|
--------------------------------|--------------------------------|


  S S S S S S S S S S S S E  E       E  E  H.             
----1---0---1---0-----0-3-2------||--3------------------||
----1---1---1---1-----1------3---||--0------------------||
-----------------------------2--*||--0------------------||
--3---2---0---------2-----0-----*||--0------------------||
--------------3---0--------------||---------------------||
---------------------------------||--3------------------||

__________________________________________________________
__________________________________________________________




Guitar #2 :

               E   S  S S  S  S  S  E   E   E.   S  
E||--------|--10----------10-----------------------|
B||--------|------12---------12----12------12---10-|
G||*-------|---------12-9-------12-----12----------|
D||*-------|---------------------------------------|
A||--------|---------------------------------------|
E||--------|---------------------------------------|


  S T   T  S  S E.   S S T T   S  S  Q     
---------------------------7h-10-12-13----|
--8-8h-10p-8----8------8-8----------------|
-------------10-----10--------------------|
------------------------------------------|
------------------------------------------|
------------------------------------------|


   E   S  S S  S  S  S  E   E   E.   S  
--10----------10-----------------------|
------12---------12----12------12---10-|
---------12-9-------12-----12----------|
---------------------------------------|
---------------------------------------|
---------------------------------------|


  S T   T  S  S E.   S S T T   S  S  Q     
---------------------------7h-10-12-13----|
--8-8h-10p-8----8------8-8----------------|
-------------10-----10--------------------|
------------------------------------------|
------------------------------------------|
------------------------------------------|


   E   S  S  S  S  S  S  E   E   E.   S  
--12-----------------12-10--15--10------|
------13----------13-----------------12-|
---------14-11-14-----------------------|
----------------------------------------|
----------------------------------------|
----------------------------------------|


   E   S  S  S  S  S  S  S  T   T   S  S  Q     
-----------------------------------------------|
--13-----------------13-12-12h-13p-12----12----|
------14-11----11-14------------------14-------|
------------12---------------------------------|
-----------------------------------------------|
-----------------------------------------------|


   E   S  S  S  S  S  S  E   E   E.   S  
--12-----------------12-10--15--10------|
------13----------13-----------------12-|
---------14-11-14-----------------------|
----------------------------------------|
----------------------------------------|
----------------------------------------|


   S  T   T   S  S  E.   S  S  T   T   S  S  E   E        E  E  H.             
-----------------------------------------10-12--14---||--15------------------||
--10-10h-12p-10----10------10-10h-12h-13-------------||----------------------||
----------------12------12--------------------------*||----------------------||
----------------------------------------------------*||----------------------||
-----------------------------------------------------||----------------------||
-----------------------------------------------------||----------------------||




Duration Legend
---------------
W - whole
H - half
Q - quarter
E - 8th
S - 16th
T - 32nd
X - 64th
. - note dotted
|-n-|  - n-tuplets


Tablature Legend
----------------
L - tied note
x - dead note
g - grace note
(n) - ghost note
> - accentuded note
NH - natural harmonic
AH - artificial harmonic
TH - tapped harmonic
SH - semi harmonic
PH - pitch harmonic
h - hammer on
p - pull off
b - bend
br - bendRelease
pb - preBend
pbr - preBendRelease
brb - bendReleaseBend
\n/ - tremolo bar dip
\n - tremolo bar dive
-/n - tremolo bar Release up
/n\ - tremolo bar inverted dip
/n - tremolo bar return
-\n - tremolo bar Release down
S - shift slide
s - legato slide
/ -  slide into from below or out of upwards
\ -  slide into from above or out of downwards
~ - vibrato
W - wide vibrato
tr - trill
TP - tremolo picking
T - tapping
S - slap
P - pop
< - fade in
^ - brush up
v - brush down





Duration Legend
---------------
W - whole
H - half
Q - quarter
E - 8th
S - 16th
T - 32nd
X - 64th
. - note dotted
|-n-|  - n-tuplets


Tablature Legend
----------------
L - tied note
x - dead note
g - grace note
(n) - ghost note
> - accentuded note
NH - natural harmonic
AH - artificial harmonic
TH - tapped harmonic
SH - semi harmonic
PH - pitch harmonic
h - hammer on
p - pull off
b - bend
br - bendRelease
pb - preBend
pbr - preBendRelease
brb - bendReleaseBend
\n/ - tremolo bar dip
\n - tremolo bar dive
-/n - tremolo bar Release up
/n\ - tremolo bar inverted dip
/n - tremolo bar return
-\n - tremolo bar Release down
S - shift slide
s - legato slide
/ -  slide into from below or out of upwards
\ -  slide into from above or out of downwards
~ - vibrato
W - wide vibrato
tr - trill
TP - tremolo picking
T - tapping
S - slap
P - pop
< - fade in
^ - brush up
v - brush down
Login or Register to remove this ad.