Ads

Castle of Hain (Final Fantasy III) Guitar Tab

Submitted: Oct 19, 2014 by JordanVS

0
Download | Listen
Game: Final Fantasy III
Composer(s): Nobuo Uematsu
Style: Arrangement, Fingerstyle
Series: Final Fantasy

This song is also called Hyne's Castle

AutoScroll: Slow | Medium | Fast
Castle of Hain                                            
Final Fantasy III
Nobuo Uematsu
JordanVS

* Capo on the 3rd fret 
-4/4
-108

     E  S S E  E  E  E  E  S S    E  S S E  E  E  E  E  S S      E  E  E  E  E  E  E  E   
E||------------3-----1---------|------------3-----1---------||---------------------------|
B||--0--1---0-----0--------4---|--0--1---0-----0--------4---||---------------0-----------|
G||-------2-------------2----3-|-------2-------------2----3-||*--------------------------|
D||--2--0---2--0--2--0--2------|--2--0---2--0--2--0--2------||*--0-----------------------|
A||------------------------3---|------------------------3---||---2--2--2--2--2--2--2--2--|
E||----------------------------|----------------------------||---------------------------|


  E  E  E  E  E  E  E  E     E  E  E  E  E  E  E  E     E  E  E  E  E  E  E  E   
--------------------------|--------------------------|--------------------------|
--------------------------|--------------2-----------|--------------------------|
--------------------------|--------------------------|--0-----------------------|
--3-----------------------|--2-----------------------|--2--2--2--2--2--2--2--2--|
--5--5--5--5--5--5--5--5--|--4--4--4--4--4--4--4--4--|--------------------------|
--------------------------|--------------------------|--------------------------|


  E  E  E  E  E  E  E  E     E  E  E  E  E  E  E  E     E  E  E  E  E  E  E  E   
--------------------------|--------------------------|--------------------------|
--------------0-----------|--------------------------|--------------2-----------|
--------------------------|--------------------------|--------------------------|
--0-----------------------|--3-----------------------|--2-----------------------|
--2--2--2--2--2--2--2--2--|--5--5--5--5--5--5--5--5--|--4--4--4--4--4--4--4--4--|
--------------------------|--------------------------|--------------------------|


                                                             |--3--|          |--3--|          
  E  E  E  E  E  E  E  E     Q    E.  S  S  S E  E  E     E  S  S  S E  E  E  S  S  S S S S S  
--------------------------|-------2---2p-0h-2-3--2-----|--2--0h-2p-0-------0------------------|
--------------------------|-------------------------2--|-------------3--2-----3h-5p-3-2-0-2-3-|
--0-----------------------|----------------------------|--------------------------------------|
--2--2--2--2--2--2--2--2--|--4-------------------------|--------------------------------------|
--------------------------|--4-------------------------|-------------------0----------2-------|
--------------------------|--2-------------------------|--2----------3------------------------|


                                  |--3--|          |--3--|                                        
  Q    E.  S  S  S E  E  E     E  S  S  S E  E  E  S  S  S S S S S    E  E  S S S S E  S S E  E   
-------2---2p-0h-2-3--2-----|--2--0h-2p-0-------0------------------|-----------------------------|
-------------------------2--|-------------3--2-----3h-5p-3-2-0-2-3-|----------0-2---2------2-----|
----------------------------|--------------------------------------|--3--3--3--------------------|
--4-------------------------|--------------------------------------|--------------4------4-------|
--4-------------------------|-------------------0----------2-------|-----------------------------|
--2-------------------------|--2----------3------------------------|--2--2--2---2---2--2---2--2--|


  E  S S E  S S E  E  E  E     E  E  S S S S E  S S E  E     E  S S E  S S E  E  E  E   
---------2------2-----------|-----------------------------|---------2------2-----------|
--L-----------2-------------|--0--0--0-2-3---3------3-----|--L-----------3-------------|
-------3--------------------|-----------------------------|-------4--------------------|
--4--4---4--2---0-----------|--------------4------4-------|--5--5---5--4---2--0--------|
-------------------4--2--1--|-----------------------------|----------------------4--2--|
----------------------------|--3--3--3---3---3--3---3--3--|----------------------------|


  Q    Q    Q    Q       E  E  E  Q    E  Q       Q    Q    Q    Q       E  E  E  Q    E  Q       
----------------------|------------------------|--6----7----9----7----|-----5--7--6----4--6-----||
-------0----2----0----|------------------------|----------------------|--8----------------------||
--3-------------------|--0--2--4--3----1--3----|----------------------|------------------------*||
----------------------|------------------------|----------------------|------------------------*||
------------0---------|------------------------|------------0---------|-------------------------||
--2----3---------3----|--0--2--3--2----0--2----|--2----3---------3----|--0--2--3--2----0--2-----||




Duration Legend
---------------
W - whole
H - half
Q - quarter
E - 8th
S - 16th
T - 32nd
X - 64th
. - note dotted
|-n-|  - n-tuplets


Tablature Legend
----------------
L - tied note
h - hammer on
p - pull off
^ - brush up
v - brush down
Login or Register to remove this ad.