Castle of Hain (Final Fantasy III) Guitar Tab

Submitted: Jan 21, 2011 by BacardiBreezer

0
Download | Listen
Game: Final Fantasy III
Composer(s): Nobuo Uematsu
Style: Transcription
Series: Final Fantasy

AutoScroll: Slow | Medium | Fast
Castle Hain
Final Fantasy 3
Composer: Nobuo Uematsu
Tabbed by: Bacardibreezer, some by Hashel
1/20/11

e--------------------------------
B------------11---9----7---------
G--7-8-----7----7---------6------
D-------10----------10-----------
A--------------------------------
E-------------------------------- x2

e------------------------------------------
B-------15---13s9------------17---15s11----
G--10-------------------12-----------------
D------------------------------------------
A------------------------------------------
E------------------------------------------ x2

e-------------------------------------------------------------------
B----10---10-8-10-11--10------10--8h10p8-------8--6h8p6-------------
G-------------------------9---------------10-9-----------9-7-9-10---
D--7----------------------------------------------------------------
A-------------------------------------------------------------------
E------------------------------------------------------------------- x2

e---------------12----12-------12---------17------17------
B--------------------------------------14------17---------
G--14-14--14-15----14-------14----------------------------
D---------------------------------------------------------
A---------------------------------------------------------
E---------------------------------------------------------

e------------12--13----13-------13--------17-------17-----
B--15-15--15---------------------------15-------18--------
G-------------------14-------14---------------------------
D---------------------------------------------------------
A---------------------------------------------------------
E---------------------------------------------------------

e--------------------------------------------16--17--19--17------15-17-16--14-16----
B----------12-------------------------------------------------18--------------------
G--13--14------14------12-14-13--11-13----------------------------------------------
D-------------------15--------------------------------------------------------------
A-----------------------------------------------------------------------------------
E-----------------------------------------------------------------------------------
Login or Register to remove this ad.