Battle 2 (Final Fantasy III) Guitar Tab

Submitted: Nov 17, 2014 by JordanVS

5
Average: 5 (3 votes)
Download | Listen
Game: Final Fantasy III
Composer(s): Nobuo Uematsu
Style: Arrangement, Fingerstyle
Series: Final Fantasy

This song is also called Boss Battle

AutoScroll: Slow | Medium | Fast
Battle 2                                               
Boss Battle Theme
Final Fantasy III
Nobuo Uematsu
JordanVS

-Drop D Tuning (D-A-D-G-B-e)
-4/4
-Tempo : 165


     E  E  E  E  E  E  E  E     E  E  E  E  E  E  E  E     E  E  E  E  E  E  E  E   
E||--------------------------|--------------------------|--------------------------|
B||-----4--5-----------------|--5--8--7-----6--5--------|-----4--5-----------------|
G||-----------5-----------5--|-----------7-----------5--|-----------5-----------5--|
D||--------------7--6--7-----|--------------------------|--------------7--6--7-----|
A||--0-----0-----0-----0-----|--0-----0-----0-----0-----|--0-----0-----0-----0-----|
D||--------------------------|--------------------------|--------------------------|


  E  E  E  E  E  E  E  E     E  E  E  E  E  E  E  E     E  E  E  E  E  E  E  E   
--------------------------|-----4--5-----------------|--5--8--7-----6--5--------|
--5--8--7-----6--5--------|-----------6-----------6--|-----------8-----------8--|
-----------7-----------5--|--------------7--6--7-----|--------------------------|
--------------------------|--0-----0-----0-----0-----|--0-----0-----0-----0-----|
--0-----0-----0-----0-----|--------------------------|--------------------------|
--------------------------|--------------------------|--------------------------|


  E  E  E  E  E  E  E  E     E  E  E  E  E  E  E  E      Q    Q    Q    Q     
-----4--5-----------------|--5--8--7-----6--5--------|--12----8----5----1----|
-----------6-----------6--|-----------8-----------8--|-----------------------|
--------------7--6--7-----|--------------------------|-----------------------|
--0-----0-----0-----0-----|--0-----0-----0-----0-----|-----------------------|
--------------------------|--------------------------|---0-------------------|
--------------------------|--------------------------|------------------2----|

								*Da Coda
  Q    Q    Q    Q       Q    Q    Q    Q       E  E  E  E  E  E  E  E     E  E  E  E  E  E  E  E   
--0-------------------|----------------------|--------------------------|--------------------------|
-------1--------------|----------------------|-----------------------1--|--------------------------|
------------2---------|----------------------|--------------------1-----|--------------2--1--------|
-----------------3----|--2-------------------|--------------2--3--------|--0--3--0--3-----------3--|
--0-------------------|-------3----0---------|-----------3--------------|--------------------------|
----------------------|-----------------3----|--2--3--6-----------------|--0-----0-----0-----0-----|


  E  E  E  E  E  E  E  E     E  E  E  E  E  E  E  E     E  E  E  E  E  E  E  E   
--------------------------|--------------0-----------|--------3--2--------8--7--|
--------------------1--0--|-----1-----1-----4-----1--|-----1--------3--6--------|
--------2--1-----1--------|--2-----2-----------------|--2-----------------------|
--0--3--------3-----------|--------------------------|--------------------------|
--------------------------|--0-----0-----0-----0-----|--0-----0-----0-----0-----|
--0-----0-----0-----0-----|--------------------------|--------------------------|


    E  E  E  E  E  E  E  S  S    E  E  E  E  E  E  E  E     E  E  E  E  E  E  E  E   
|---5-----------------L--5h-7-|--5-----------3-----------|--5-----------3-----------|
|-----------------------------|--------------------------|--------------------------|
|*----------------------------|--------------------------|--------------------------|
|*--------3-----------3-------|--------3-----------3-----|--------2-----------2-----|
|------3-----3-----3-----3----|-----3-----3-----3-----3--|-----2-----2-----2-----2--|
|---3-----------3-------------|--3-----------3-----------|--2-----------2-----------|

			  1.
  E  E  E  E  E  E  E  E     E  E  E  E  E  E  E  S  S    E  E  E  E  E  E  E  E   
--L-----------------------|--1-----------------L--1h-3-|--1-----------------------|
--------------------------|----------------------------|--------------3-----------|
--------------------------|----------------------------|--------------------------|
--------2-----------2-----|--------0-----------0-------|--------0-----------0-----|
-----2-----2-----2-----2--|-----0-----0-----0-----0----|-----0-----0-----0-----0--|
--2-----------2-----------|--0-----------0-------------|--0-----------0-----------|

							2.
  E  E  E  E  E  E  E  E     E  E  E  E  E  E  E  E        E  E  E  E  E  E  E   S  S  
--0-----------------------|--4------------------------||------------------------------|
--1-----------------------|--3------------------------||--10-----------------L--10-12-|
--------0-----------0-----|--------------------------*||------------------------------|
-----2-----2-----2-----2--|-----2-----2-----4-----6--*||---------8-----------8--------|
--3-----------3-----------|---------------------------||------8-----8-----8------8----|
--------------------------|--2-----2-----4-----6------||---8-----------8--------------|

								      *D.C. al Coda
   E  E  E  E  E  E  E  E      E  E  E  E  E  E  E  E     E  E  E  E  E  E  E  E   
---------------------------|---------------------------|--------------------------|
--10-----------8-----------|--10-----------------------|--9-----------------------|
---------7-----------7-----|---------7-----------7-----|--------7-----------7-----|
------8-----8-----8-----8--|------9-----9-----9-----9--|-----9-----9-----9-----9--|
---6-----------6-----------|---7-----------7-----------|--7-----------7-----------|
---------------------------|---------------------------|--------------------------|

*Coda
  W                   W                  
--0----------------|--L----------------||
--1----------------|--L----------------||
--2----------------|--L----------------||
-------------------|-------------------||
--0----------------|--L----------------||
-------------------|-------------------||




Duration Legend
---------------
W - whole
H - half
Q - quarter
E - 8th
S - 16th
T - 32nd
X - 64th
. - note dotted
|-n-|  - n-tuplets


Tablature Legend
----------------
L - tied note
h - hammer on
p - pull off
^ - brush up
v - brush down
Login or Register to remove this ad.