Battle 1 (Final Fantasy III) Guitar Tab

Submitted: Jan 20, 2011 by BacardiBreezer

5
Average: 5 (4 votes)
Download | Listen
Game: Final Fantasy III
Composer(s): Nobuo Uematsu
Style: Alternate picking, Transcription
Series: Final Fantasy

AutoScroll: Slow | Medium | Fast
FF3 Battle 1
Final Fantasy 3
Composer: Nobuo Uematsu
Tabbed by: Bacardibreezer
1/20/11

e|-------------10--12--17-15------14-------|
B|------12-13----------------17------15----|
G|--14-------------------------------------|
D|-----------------------------------------|
A|-----------------------------------------|
E|-----------------------------------------|

e|--13-------13---12-------12---10-8----8-7----|
B|-----13------------12--------------10--------|
G|--------14------------13---------------------|
D|---------------------------------------------|
A|---------------------------------------------|
E|---------------------------------------------|

e|-------------10--12--17-15-----14--------|
B|------12-13----------------17-----15-----|
G|--14-------------------------------------|
D|-----------------------------------------|
A|-----------------------------------------|
E|-----------------------------------------|

e|--13-------13---12-----------------|
B|-----13------------12----12-10-----|
G|--------14------------13-----------|
D|-----------------------------------|
A|-----------------------------------|
E|-----------------------------------|

e|--10--12--13--10--------10-12----------------12------------|
B|---------------------13-------10-12-13----13----10-12-13---|
G|-----------------------------------------------------------|
D|-----------------------------------------------------------|
A|-----------------------------------------------------------|
E|-----------------------------------------------------------|

e|--10--12--13--10--------------------10-----10-12--10-12-13-17-16-------|
B|--------------------10-12-13--12-13-----13------------------------17---|
G|-----------------------------------------------------------------------|
D|-----------------------------------------------------------------------|
A|-----------------------------------------------------------------------|
E|-----------------------------------------------------------------------|
Login or Register to remove this ad.