Ancient's Village (Final Fantasy III) Guitar Tab

Submitted: Oct 07, 2014 by JordanVS

5
Average: 5 (1 vote)
Download | Listen
Game: Final Fantasy III
Composer(s): Nobuo Uematsu
Style: Arrangement, Fingerstyle
Series: Final Fantasy

This song is also called Time Remains

AutoScroll: Slow | Medium | Fast
Time Remains                                             
Ancient's Village
Final Fantasy III
Nobuo Uematsu
JordanVS


     Q.     E  Q    E  E     E  E  E  E  Q    Q       Q.     E  Q    E  E     H        H         
E||-----------------------|--------2-----0---------|-----------------------|--------------------|
B||--2--------------------|-----2-----4-------0----|--3--------------3--1--|--2--------0--------|
G||---------2----------1--|--2---------------------|---------2--1----------|--2-----------------|
D||------------2----4-----|--4-----------2---------|--0---------0----------|-----------2--------|
A||--0--------------------|------------------------|-----------------------|--------------------|
E||------------4----------|------------------------|-----------------------|--------------------|


  Q.     E  Q    E  E     E  E  E  E  Q    Q       Q.     S  S Q    E  E     H        Q    Q     
-----------------------|--------2-----0---------|-------------------------|---------------------|
--2--------------------|-----2-----4-------0----|--3------5p-3-2-------0--|--0------------------|
---------2----------1--|--2---------------------|--4----------------1-----|-----------2---------|
------------2----4-----|--4-----------2---------|--------------2----------|--3------------------|
--0--------------------|------------------------|-------------------------|--5-------------0----|
------------4----------|------------------------|-------------------------|---------------------|


  Q.     E  Q    Q       E  E  E  E  E  E  E  E     Q.     E  Q    Q       E  E  E  E  E  E  E  E   
----------------------|--------------------------|----------------------|--------------------------|
-----------------0----|--2-----------------------|-----------------0----|--2-----------------------|
--2------1--2---------|--------2-----------2-----|--2------1--2---------|--------2-----------2-----|
--0---------0----3----|-----2-----2-----2-----2--|-----------------0----|-----2-----2-----2-----2--|
----------------------|--0-----------0-----------|--2---------2---------|--0-----------0-----------|
----------------------|--------------------------|----------------------|--------------------------|


  Q.     E  Q    Q       E  E  E  E  E  E  E  E     E  E  E  E  E  E  E  E   
----------------------|--0-----------------------|--0-----------L-----------|
--2---------2----4----|--------------0-----------|--0-----------L--3--2--0--|
---------5------------|--1-----------------------|--------0-----------------|
----------------------|--------2-----------2-----|-----0-----0--------0-----|
-----------------4----|-----2-----2-----2-----2--|--------------------------|
--2---------2---------|--0-----------0-----------|--3-----------3-----------|


  E  E  E  E  E  E  E  E     W                  
--------------------------|-------------------||
--------------------------|-------------------||
--2-----------1-----------|--2----------------||
--------2-----------2-----|--2----------------||
-----0-----0-----2-----2--|--0----------------||
--0-----------0-----------|-------------------||




Duration Legend
---------------
W - whole
H - half
Q - quarter
E - 8th
S - 16th
T - 32nd
X - 64th
. - note dotted
|-n-|  - n-tuplets


Tablature Legend
----------------
L - tied note
h - hammer on
p - pull off
^ - brush up
v - brush down
Login or Register to remove this ad.