Ads

Town Theme (Final Fantasy II) Guitar Tab

Submitted: Jun 12, 2009 by TheDoomOfAllFires (Last updated: Jan 23, 2010)

5
Average: 5 (4 votes)
Download | Listen
Game: Final Fantasy II
Composer(s): Nobuo Uematsu
Style: Arrangement, Fingerstyle
Series: Final Fantasy

AutoScroll: Slow | Medium | Fast
Final Fantasy II - Town Theme
Arranged by TheDoomOfAllFires; 06/12/2009

BPM=80


Hope you like it ! ^^



     H.           E  E       E  E  E  E  E  E  E  E     Q    Q    E  E  E  E   
E||---------------------||------------------------0--|--1---------5--3--1--0--|
B||---------------------||---------------1-----3-----|------------------------|
G||------------------0--||*--2-----2--3--------2-----|-------2----------------|
D||---------------3-----||*--------3--------2--------|--0----3----0-----------|
A||---------------------||------3--------0-----------|------------------0-----|
E||---------------------||---1-----------------------|------------------------|


                                            ^           
  E  E  E  E  E  E  E   E     E  E  E  S  S Q    E  E   
--1------------------------|---------------------------|
-----------3--1------------|---------------------------|
--------3--------0--2h--3--|--2--------3p-2-0-------0--|
-----3--------------2------|--3-----3-------2----3-----|
--1-----------3------------|-----3----------3----------|
---------------------------|--1------------------------|


  E  E  E  E  E  E  E  E     Q    Q    E  E  E  E     E  E  E  E  Q    E  E   
-----------------------0--|--1---------5--3--1--0--|--1-----------0-------1--|
--------------1-----3-----|------------------------|-----------3-------------|
--2-----2--3--------2-----|-------2----------------|--------3----------------|
--------3--------2--------|--0----3----0-----------|-----3-------------2-----|
-----3--------0-----------|------------------0-----|--1-----------3----------|
--1-----------------------|------------------------|-------------------------|


  E  E  E  E  H           E  E  E  E  E  E  E  E     E  E  E  E  E  E  E  E   
--1--------------------|--1--------1--------------|--------------------------|
-----------------------|--------------4-----1--2--|--1--------------------1--|
--------0--3--2--------|--------1-----0--3--------|--------1-----------3-----|
--------2-----3--------|-----3--------------------|-----1-----1-----1--3-----|
-----3-----------------|--4-----------------------|--------------------------|
--1--------------------|--------------------------|--4-----------3-----------|


  E  E  E  E  E  E  E   E     E  E  E  E  E  E  E  E   
---------------------------|--------------------------|
--2-----4--2--1------------|--1--------------1--2--4--|
--------------------0h--3--|--------3-----2-----3-----|
-----3-----------2---------|--------------------------|
--1-----------3------------|-----3-----3--------------|
---------------------------|--1-----------------------|


  E  E  E  E  E  E  E  E     E  E  E  E  E  E  E  E     E  E  E  E  E  E  Q     
--1--------1--------------|--------------------------|--1-----4-----3-----1----|
--------------4-----1--2--|--1--------------1--2--4--|-------------------------|
--------1-----0--3--------|--------1--------0--------|-----------------0-------|
-----3--------------------|-----1-----1--------------|-----3-----3--1----------|
--4-----------------------|--------------------------|--4----------------------|
--------------------------|--4-----------3-----------|-------------------------|


             ^                          ^             ^                  
  E  E  Q    Q    E  E       E  E  Q    Q    E  E     W                  
--1-----1----0-----------||--1-----1----0-------1--|--1----------------||
--------1----1-----------||--------1----1----------|--1----------------||
-----0-------0-------0--*||-----0-------0----------|--2----------------||
------------------3-----*||------------------2-----|--3----------------||
--3----------3-----------||--3----------3----------|--3----------------||
-------------------------||------------------------|--1----------------||




Duration Legend
---------------
W - whole
H - half
Q - quarter
E - 8th
S - 16th
T - 32nd
X - 64th
. - note dotted
|-n-|  - n-tuplets


Tablature Legend
----------------
L - tied note
x - dead note
g - grace note
(n) - ghost note
> - accentuded note
NH - natural harmonic
AH - artificial harmonic
TH - tapped harmonic
SH - semi harmonic
PH - pitch harmonic
h - hammer on
p - pull off
b - bend
br - bendRelease
pb - preBend
pbr - preBendRelease
brb - bendReleaseBend
\n/ - tremolo bar dip
\n - tremolo bar dive
-/n - tremolo bar Release up
/n\ - tremolo bar inverted dip
/n - tremolo bar return
-\n - tremolo bar Release down
S - shift slide
s - legato slide
/ -  slide into from below or out of upwards
\ -  slide into from above or out of downwards
~ - vibrato
W - wide vibrato
tr - trill
TP - tremolo picking
T - tapping
S - slap
P - pop
< - fade in
^ - brush up
v - brush down
Login or Register to remove this ad.

1 comment on Town Theme

im going to learn this sounds

im going to learn this sounds beautiful. Great job tabbing this Doom