Ads

Town (Final Fantasy II) Guitar Tab

Submitted: Jul 04, 2010 by perpetiel01

5
Average: 5 (4 votes)
Download | Listen
Game: Final Fantasy II
Composer(s): Nobuo Uematsu
Style: Arrangement, Fingerstyle
Series: Final Fantasy

AutoScroll: Slow | Medium | Fast
Final Fantasy 2 - Town
Nobuo Uematsu 

tabbed by: Perpetiel01
July 2,1010 
4/4 metrum


E|------------------------|---------------------------------|-----------------4---2---0-------|
B|------------------------|-----------------0-----------4---|-5---------------------------4---|
G|------------------------|:1-------1---2-----------6-------|---------4-----------------------|
D|----------------2---4---|-----2---------------4-----------|-----6-------6-------------------|
A|------------------------|-----------------6---------------|-4---------------3---------------|
E|------------------------|-0-------------------------------|---------------------------------|


E|-0-------------------------------|--------------------------------|---------------------------------|
B|---------2-------0---------------|--------------------------------|-----------------0-----------4---|
G|-------------------------1---2---|-1-----------2--1---------------|-1-------1---2-----------6-------|
D|-----2-------2-------4-----------|---------2---------4----2---4---|-----2---------------4-----------|
A|-0---------------2---------------|-----2-------------2------------|-----------------6---------------|
E|---------------------------------|-0------------------------------|-0-------------------------------|


E|-----------------4---2---0-------|-0---------------------------0---|-0---------------------|
B|-5---------------------------4---|---------2---------------4-------|-----0-------0---------|
G|---------4-----------------------|---------2-----------------------|---------2-------1-----|
D|-----6-------6-------------------|-----2-------2-------4-----------|-----------------------|
A|-4---------------3---------------|-0---------------2---------------|-----------------------|
E|---------------------------------|---------------------------------|-0---------------0-----|


E|-0-----------0-------------------|---------------------------------|---------------------------------|
B|-----------------3-------0---1---|-0-----------0---------------0---|-1-------3---1---0---------------|
G|---------0-----------2-----------|-0---2---0-------0-------2-------|-----------------------------2---|
D|-----2-----------0---------------|-------------4---2---0-----------|-----2-------------------1-------|
A|-3-------------------------------|-------------------------3---2---|-0-------------------2-----------|
E|---------------------------------|-3-------------------------------|---------------------------------|


E|---------------------------------|-0-----------0-------------------|---------------------------------|
B|-0-------------------0---1---3---|-----------------3-------0---1---|-0-------------------0---1---3---|
G|-------------0-------1-----------|---------0-----------2-----------|-0---2---0-----------------------|
D|-----2---------------------------|-----2-----------0---------------|-------------4---2---0-----------|
A|---------2-----------------------|-3-------------------------------|-------------------------3---2---|
E|-0---------------0---------------|---------------------------------|-3-------------------------------|

                                     1st Ending                    2nd Ending
E|-0-------3-------2-------0-------|-0----------------------------|-0-------------------------|
B|-----------------------------3---|---------0-------4------------|---------0-------4----4----|
G|-----0-------0-------2-----------|-----2-------2---4-----------:|-----2-------2---4---------|
D|-----------------0---------------|----------------------2---4---|---------------------------|
A|-3-------------------------------|-2----------------------------|-2-------------------------|
E|---------------------------------|------------------------------|---------------------------|


E|-0------|
B|-0------|
G|-1------|
D|-2------|
A|-2------|
E|-0------|


Login or Register to remove this ad.

3 comments on Town

Wow... so great !!!

5

Wow... so great !!!

awesome

5

this was awesome great tab

Such a great tab -

5

- especially for being transcribed in the early medieval period! :D

"tabbed by: Perpetiel01
July 2,1010"