Ads

Rebel Army Theme (Final Fantasy II) Guitar Tab

Submitted: May 09, 2017 by FingerstyleGaming

5
Average: 5 (1 vote)
Download | Listen
Game: Final Fantasy II
Composer(s): Nobuo Uematsu
Style: Arrangement, Fingerstyle
Series: Final Fantasy

AutoScroll: Slow | Medium | Fast
Rebel Army Theme
Final Fantasy II
Composed by Nobuo Uematsu
Arranged by FingerstyleGaming


                  |--3--|                                                     
     H.           E  E  E       Q.     S S Q    Q       Q    E.  S Q    Q     
E||------------------------||------------------------|-----------------------|
B||------------------------||------------------------|--0--------------------|
G||------------------------||*--0--------0-2---------|--0----7---5-4----2----|
D||------------------2--4--||*--2------4---0----0----|--0--------------------|
A||---------------2--------||--------------0---------|-----------------------|
D||------------------------||---2----------4---------|--5----------1---------|


  Q    E  E  E  E  E  E     H        E  E  Q       Q.     E  E  E  E  E   
-------0--------0--------|----------------------|--0------0--------------|
--0----------3-----3-----|--0--------------0----|--1---------3-----0--1--|
--0-------------------2--|----------------------|---------------2--------|
-------------------------|--------------0--3----|------------4-----0-----|
-------------------------|----------------------|--3---------------------|
--2-------2--4--------4--|--5--------3----------|------------0-----4-----|


                                         |--3--|                   |--3--|   
  Q    E.  S Q    Q       Q.     E  Q    E  E  E     H        Q    E  E  E   
------------------3----|--2------2--6-------4--6--|--2----------------------|
--0--------1-0----2----|--2---------5----7--------|--5--------4-------------|
--0----2-----0---------|------------3-------------|-------------------------|
-------0---------------|--------------------------|-------------------2--4--|
------------------0----|--1-----------------------|--2-------------2--------|
--2----4-----5---------|------------4-------------|-------------------------|


  Q.     S S Q    Q       Q    E.  S Q    Q       E  E  E  E  E  E  E  E   
-----------------------|-----------------------|--------0--------0--------|
-----------------------|--0--------------------|--0-----------3-----3-----|
--0--------0-2---------|--0----7---5-4----2----|--0--------------------2--|
--2------4---0----0----|--0--------------------|--------------------------|
-------------0---------|-----------------------|--------------------------|
--2----------4---------|--5----------1---------|--2--4-----2--4--------4--|


  H        E  E  Q       Q    Q    E  E  E  E     Q    E.  S Q    Q     
----------------------|--0----3----2--0--------|------------------3----|
--0--------------0----|--1---------------3-----|--0--------1-0----2----|
----------------------|---------------------5--|--0----2-----0---------|
--------------0--3----|------------4-----0-----|-------0---------------|
----------------------|--3---------------------|------------------0----|
--5--------3----------|------------0-----4-----|--2----4-----5---------|


                 |--3--|                  |--3--|     
  Q.     E  Q    E  E  E     H.           E  E  E     
--2------2--7-------0-----|--0----------------------||
------------0----------7--|-------------------------||
--3--------------8--------|--0---------------------*||
--------------------------|------------------2--4--*||
--1---------6-------------|---------------2---------||
--------------------------|--2----------------------||
Login or Register to remove this ad.