Rebel Army Theme (Final Fantasy II) Bass/Guitar Tab

Submitted: Nov 22, 2010 by hashel (Last updated: Aug 25, 2011)

0
Download | Listen
Game: Final Fantasy II
Composer(s): Nobuo Uematsu
Style: 2 or more instruments, Transcription
Series: Final Fantasy

Click here for a video example.

AutoScroll: Slow | Medium | Fast
Melody
Strings Part
                  |---3--|              |---3---|               
     H.           E  E   E        Q     E   E   E   Q     Q     
E||-------------------------||---------------------------------|
B||-------------------------||---------------------10----------|
G||------------------9--11--||*--12----12--11--12--------------|
D||---------------9---------||*--------------------------12----|
A||-------------------------||---------------------------------|
E||-------------------------||---------------------------------|


         |--3--|                                                                     
   Q     Q     E   Q     Q        Q     Q     E   E   E   E      H.            Q     
--------10--------------------|--------12----10--12--10------|----------------------|
--12----------13--12----10----|--12----------------------10--|--12------------12----|
------------------------------|------------------------------|----------------------|
------------------------------|------------------------------|----------------------|
------------------------------|------------------------------|----------------------|
------------------------------|------------------------------|----------------------|


                                        |--3--|               
   Q.      E   E   E   E   E      Q     Q     E   Q     Q     
--12------12--10--------------|------------------------------|
------------------10--12--13--|--12----10----13--12----------|
------------------------------|------------------------12----|
------------------------------|------------------------------|
------------------------------|------------------------------|
------------------------------|------------------------------|


                     |---3---|                   |---3--|   
   Q.      E   Q     E   E   E      H.           E  E   E   
--------------------------------|--------------------------|
--------------------------------|--12----------------------|
--11------11--15----11--13--15--|-------------------9--11--|
--------------------------------|----------------9---------|
--------------------------------|--------------------------|
--------------------------------|--------------------------|


         |---3---|                        |--3--|               
   Q     E   E   E   Q     Q        Q     Q     E   Q     Q     
--------------------------------|--------10--------------------|
--------------------10----------|--12----------13--12----10----|
--12----12--11--12--------------|------------------------------|
--------------------------12----|------------------------------|
--------------------------------|------------------------------|
--------------------------------|------------------------------|


   Q     Q     E   E   E   E      H.            E   E      Q     Q     E   E   E   E   
--------12----10--12--10------|------------------------|--12----15----14--12--10------|
--12----------------------10--|--12------------12--12--|--------------------------13--|
------------------------------|------------------------|------------------------------|
------------------------------|------------------------|------------------------------|
------------------------------|------------------------|------------------------------|
------------------------------|------------------------|------------------------------|


         |--3--|                        |--3--|        |---3--|   
   Q     Q     E   Q     Q        Q     Q     E   Q    E  E   E   
------------------------------|----------------------------------|
--12----10----13--12----------|------------------11--------------|
------------------------12----|--11----11----11--------8--9--11--|
------------------------------|----------------------------------|
------------------------------|----------------------------------|
------------------------------|----------------------------------|


               Guitar Part ^             ^            ^            ^          
               |--3--|          |--3--|                    |--3-|             
  H.           E  E  E     Q    E  E  E  Q    Q       Q    Q    E  Q    Q     
------------------------|--------------------------|-------------------------|
------------------------|----------------1---------|-------3-----------------|
--9---------------------|--0-------------2---------|--0---------5--4----2----|
------------------2--4--|--2----5--4--5--0---------|--0------------4---------|
---------------2--------|--2------------------5----|--2------------6---------|
------------------------|--------------------------|--3----------------------|


  ^                                                                        
  Q    Q    E  S  S  E  E     H.           E  E     Q    Q    E  E  E  E   
---------------------------|---------------------|------------------------|
-------5----3--3h-5p-3-----|---------------------|--5----8----7--5--------|
--4---------------------2--|--4------------4--4--|------------------7--5--|
--2------------------------|---------------------|------------------------|
--2------------------------|---------------------|------------------------|
---------------------------|---------------------|------------------------|


                             ^            ^                ^                         
       |--3--|                    |--3-|       |--3--|                  |---3--|     
  Q    Q     E  Q    Q       Q    Q    E  Q    E  E  E     H.           E  E   E     
--------------------------|-----------------------------|--------------------------||
--------------------------|-----------------------------|--------------------------||
--4-----------------------|---------------2-------------|--0---------------9--11--*||
-------7----10--9----5----|--4----4----4--4----1--2--4--|--2------------9---------*||
--------------------------|--3------------2-------------|--2-----------------------||
--------------------------|--6--------------------------|--------------------------||



Guitar Chords
     Q    Q    Q    Q         H        H           Q    Q    Q    Q     
E||----------------------||------------2--------|--3----2---------2----|
B||----------------------||------------1--------|--3----3----4----4----|
G||------------x---------||*--0--------2--------|--0----2----4----2----|
D||-------x--------------||*--2--------0--------|--0----0----4----4----|
A||--x-------------------||---2-----------------|--2---------6----2----|
E||----------------------||---0-----------------|--3----2--------------|


  H        H           H        H           H        H           Q    Q    Q    Q     
-----------2--------|--3--------1--------|-----------2--------|-------2----3----0----|
-----------3--------|--3--------0--------|--1--------3--------|-------3----3----2----|
--0--------2--------|--0--------0--------|--0--------2--------|--0----2----0----0----|
--2--------0--------|--0--------0--------|--2--------0--------|--2----0----0----2----|
--2-----------------|--2--------2--------|--3-----------------|--2---------2----0----|
--0--------2--------|--3--------1--------|--------------------|--0----2----3---------|


  W                   H        H           H        H           Q    Q    Q    Q     
--2----------------|--2--------1--------|-----------2--------|--3----2---------2----|
--2----------------|--5--------0--------|-----------1--------|--3----3----4----4----|
--3----------------|--4--------0--------|--0--------2--------|--0----2----4----2----|
--4----------------|--2--------0--------|--2--------0--------|--0----0----4----4----|
--4----------------|--2--------2--------|--2-----------------|--2---------6----2----|
--2----------------|-----------1--------|--0-----------------|--3----2--------------|


  H        H           H        H           H        H           Q    Q    Q    Q     
-----------2--------|--3--------1--------|-----------2--------|-------2----3----0----|
-----------3--------|--3--------0--------|--1--------3--------|-------3----3----2----|
--0--------2--------|--0--------0--------|--0--------2--------|--0----2----0----0----|
--2--------0--------|--0--------0--------|--2--------0--------|--2----0----0----2----|
--2-----------------|--2--------2--------|--3-----------------|--2---------2----0----|
--0--------2--------|--3--------1--------|--------------------|--0----2----3---------|


  H        H           W                   H        H           Q    Q    Q    Q     
--6--------2--------|-------------------|-----------2--------|--3----2---------2----|
--5--------4--------|-------------------|-----------1--------|--3----3----4----4----|
--6--------2--------|--0----------------|--0--------2--------|--0----2----4----2----|
-----------4--------|--2----------------|--2--------0--------|--0----0----4----4----|
--3--------2--------|--2----------------|--2-----------------|--2---------6----2----|
--------------------|--0----------------|--0-----------------|--3----2--------------|


  H        H           H        H           H        H           Q    Q    Q    Q     
-----------2--------|--3--------1--------|-----------2--------|-------2----3----0----|
-----------3--------|--3--------0--------|--1--------3--------|-------3----3----2----|
--0--------2--------|--0--------0--------|--0--------2--------|--0----2----0----0----|
--2--------0--------|--0--------0--------|--2--------0--------|--2----0----0----2----|
--2-----------------|--2--------2--------|--3-----------------|--2---------2----0----|
--0--------2--------|--3--------1--------|--------------------|--0----2----3---------|


  H        H           W                   
--6--------2--------|--------------------||
--5--------4--------|--------------------||
--6--------2--------|--0----------------*||
-----------4--------|--2----------------*||
--3--------2--------|--2-----------------||
--------------------|--0-----------------||




Bass Line
               H        Q    Q       Q    Q    Q    Q       Q.     E  Q.     E   
G||-------||----------------------|--0-------------------|----------------------|
D||-------||*--2--------0----4----|-------4----1---------|--2------2--3------3--|
A||-------||*---------------------|-----------------2----|----------------------|
E||-------||----------------------|----------------------|----------------------|


  H        H           H        Q    Q       Q    Q    Q    Q       Q    Q    Q    Q     
--------------------|---------------------|--0----7----7----6----|--5-------------------|
--5--------3--------|-----------0----4----|--2----4----5----7----|--8----3---------3----|
--------------------|--3------------------|----------------------|------------4---------|
--------------------|---------------------|----------------------|----------------------|


  Q    Q    Q    Q       H        Q    Q       Q    Q    Q    Q     
----------------------|---------------------|----------------------|
-------3--------------|--2--------0----4----|--5----4----1---------|
--2---------2---------|---------------------|-----------------2----|
----------------------|---------------------|----------------------|


  Q.     E  Q.     E     H        H           H        Q    Q       Q    Q    Q    Q     
----------------------|--------------------|---------------------|--0----7----7----6----|
--2------2--4------4--|--5--------3--------|-----------0----4----|--2----4----5----7----|
----------------------|--------------------|--3------------------|----------------------|
----------------------|--------------------|---------------------|----------------------|


                              |--3-|                                   
  Q    Q    Q    Q       Q    Q    E  Q    Q       H        Q    Q     
--5-------------------|-------------------------|---------------------|
--8----2----1---------|--2------------2---------|--2--------0----4----|
-----------------2----|-------2----2------------|---------------------|
----------------------|-------------------------|---------------------|


  Q    Q    Q    Q       Q.     E  Q.     E     H        H           H        Q    Q     
----------------------|----------------------|--------------------|---------------------|
--5----4----1---------|--2------2--4------4--|--5--------3--------|-----------0----4----|
-----------------2----|----------------------|--------------------|--3------------------|
----------------------|----------------------|--------------------|---------------------|


                                                     |--3-|               
  Q    Q    Q    Q       Q    Q    Q    Q       Q    Q    E  Q    Q       
--0----7----7----6----|--5-------------------|--------------------------||
--2----4----5----7----|--8----2----1---------|--2------------2---------*||
----------------------|-----------------2----|-------2----2------------*||
----------------------|----------------------|--------------------------||
Login or Register to remove this ad.

1 comment on Rebel Army Theme

yup the little chords on the

yup the little chords on the guitar part are wrong ._.