Main Theme (Final Fantasy II) Bass/Guitar Tab

Submitted: May 24, 2015 by hashel

0
Download | Listen
Game: Final Fantasy II
Composer(s): Nobuo Uematsu
Style: 2 or more instruments, Arrangement
Series: Final Fantasy

Click here for a video example.

AutoScroll: Slow | Medium | Fast
Title: Main Theme (Hashel05 version)
Album: FF2 OST
Tabber: Hashel05
Tempo = 90

Please, download the GP5 for all the tracks =)

Melody



E |----|-------|-------|-------|
B |----|-------|-------|-------|
G |----|-------|-------|-------|
D |----|-------|-------|-------|
A |----|-------|-------|-------|
E |----|-------|-------|-------|



-----------------------------------------|-----------12---|
------------------------------9h---------|--10------------|
----------------7h--9h--11---------------|----------------|
-7h--9h--10------------------------------|----------------|
-----------------------------------------|----------------|
-----------------------------------------|----------------|


----------------|----------------|----------|----------------------------|
--12------------|--13-12-10-12---|----------|-----------------------10---|
-----------9----|----------------|--12-9----|--10L---------10-10-12------|
----------------|----------------|----------|----------------------------|
----------------|----------------|----------|----------------------------|
----------------|----------------|----------|----------------------------|


--12-10-15-13---|--11------------|--12---|-----------12---|----------------|
----------------|-----------12---|-------|--10------------|--12------------|
----------------|----------------|-------|----------------|-----------9----|
----------------|----------------|-------|----------------|----------------|
----------------|----------------|-------|----------------|----------------|
----------------|----------------|-------|----------------|----------------|


----------------|----------|----------------------------|----------------|
--13-12-10-12---|----------|-----------------------10---|--13-11-10-9----|
----------------|--12-9----|--10L---------10-10-12------|----------------|
----------------|----------|----------------------------|----------------|
----------------|----------|----------------------------|----------------|
----------------|----------|----------------------------|----------------|


-----------------------10---|
--10-------12-13------------|
----------------------------|
----------------------------|
----------------------------|
----------------------------|


--12----------------------------------------------------------------------------
--------------------------------------------------------------------------------
--------------------------------------------------------------------------------
--------------------------------------------------------------------------------
--------------------------------------------------------------------------------
--------------------------------------------------------------------------------



-----------------------------------------|-----------12---|
------------------------------9h---------|--10------------|
----------------7h--9h--11---------------|----------------|
-7h--9h--10------------------------------|----------------|
-----------------------------------------|----------------|
-----------------------------------------|----------------|


----------------|----------------|----------|----------------------------|
--12------------|--13-12-10-12---|----------|-----------------------10---|
-----------9----|----------------|--12-9----|--10L---------10-10-12------|
----------------|----------------|----------|----------------------------|
----------------|----------------|----------|----------------------------|
----------------|----------------|----------|----------------------------|


--12-10-15-13---|--11------------|--12---|-----------12---|----------------|
----------------|-----------12---|-------|--10------------|--12------------|
----------------|----------------|-------|----------------|-----------9----|
----------------|----------------|-------|----------------|----------------|
----------------|----------------|-------|----------------|----------------|
----------------|----------------|-------|----------------|----------------|


----------------|----------|
--13-12-10-12---|----------|
----------------|--12-9----|
----------------|----------|
----------------|----------|
----------------|----------|


----------------------------------------------------|----------------|
--------------------------------------------10------|--13-11-10-9----|
--10L---------------------10L10-10----12------------|----------------|
----------------------------------------------------|----------------|
----------------------------------------------------|----------------|
----------------------------------------------------|----------------|


-----------------------10---|--12------|----|----|----|----|----|----|----|----|
--10-------12-13------------|----------|----|----|----|----|----|----|----|----|
----------------------------|----------|----|----|----|----|----|----|----|----|
----------------------------|----------|----|----|----|----|----|----|----|----|
----------------------------|----------|----|----|----|----|----|----|----|----|
----------------------------|----------|----|----|----|----|----|----|----|----|


----|----|----|----|----|----|----|----|----|----|----|----|----|----|----|----|
----|----|----|----|----|----|----|----|----|----|----|----|----|----|----|----|
----|----|----|----|----|----|----|----|----|----|----|----|----|----|----|----|
----|----|----|----|----|----|----|----|----|----|----|----|----|----|----|----|
----|----|----|----|----|----|----|----|----|----|----|----|----|----|----|----|
----|----|----|----|----|----|----|----|----|----|----|----|----|----|----|----|


----|-----------17---|----------------|----------------|----------|
----|--15------------|--17------------|--18-17-15-17---|----------|
----|----------------|-----------14---|----------------|--17-14---|
----|----------------|----------------|----------------|----------|
----|----------------|----------------|----------------|----------|
----|----------------|----------------|----------------|----------|


----------------------------------------------------|----------------|
--------------------------------------------15------|--18-16-15-14---|
--15L---------------------15----15----17------------|----------------|
----------------------------------------------------|----------------|
----------------------------------------------------|----------------|
----------------------------------------------------|----------------|


--------------------------------------13----15------|--17---|----||
--15----------15----17----18L---------18------------|-------|----||
----------------------------------------------------|-------|----||
----------------------------------------------------|-------|----||
----------------------------------------------------|-------|----||
----------------------------------------------------|-------|----||



Arpeggios


E |----|-----0--1--0-----0--1--0----|-----0--1--0-----0--1--0----|
B |----|----------------------------|----------------------------|
G |----|--2-----------2-------------|--0-----------0-------------|
D |----|----------------------------|----------------------------|
A |----|----------------------------|----------------------------|
E |----|----------------------------|----------------------------|


-----0--1--0-----0--1--0----|
----------------------------|
--2-----------2-------------|
----------------------------|
----------------------------|
----------------------------|


--------------0-----------0-----------------0--3----|
--------3-----------3-----------1-----3-------------|
----------------------------------------------------|
--2-------------------------------------------------|
----------------------------------------------------|
----------------------------------------------------|


-----0--1--0-----0--1--0----|-----0--1--0-----0--1--0----|
----------------------------|----------------------------|
--2-----------2-------------|--0-----------0-------------|
----------------------------|----------------------------|
----------------------------|----------------------------|
----------------------------|----------------------------|


--------0-----------0-------|--------0-------------------|
-----3-----3-----3-----3----|-----3-----3-----2--3--2----|
----------------------------|----------------------------|
--3-----------3-------------|--2-----------2-------------|
----------------------------|----------------------------|
----------------------------|----------------------------|


-----------0-----------0----|-----------0-----------1----|
-----0--3-----------1-------|-----0--3-----------3-------|
-----------------2----------|-----------------0----------|
--0-------------------------|----------------------------|
--------------3-------------|--2-----------0-------------|
----------------------------|----------------------------|


----------------------------|-----------0----------------|
--------0--4--------0--4----|--------0-----3--0----------|
----------------------------|-----1--------------1-------|
-----1-----------1----------|--2--------------------2----|
--2-----------2-------------|----------------------------|
----------------------------|----------------------------|


-----0--1--0-----0--1--0----|-----0--1--0-----0--1--0----|
----------------------------|----------------------------|
--2-----------2-------------|--0-----------0-------------|
----------------------------|----------------------------|
----------------------------|----------------------------|
----------------------------|----------------------------|


--------0-----------0-------|--------0-------------------|
-----3-----3-----3-----3----|-----3-----3-----2--3--2----|
----------------------------|----------------------------|
--3-----------3-------------|--2-----------2-------------|
----------------------------|----------------------------|
----------------------------|----------------------------|


-----------0-----------0----|-----------0-----------0----|
-----0--3-----------1-------|-----1--3-----------0-------|
-----------------2----------|-----------------1----------|
--0-------------------------|----------------------------|
--------------3-------------|--3-----------2-------------|
----------------------------|----------------------------|


----------------------------|----------|-----0--1--0-----0--1--0----|
----------------------------|----------|----------------------------|
----------------------------|----------|--2-----------2-------------|
--------2--3-----------0----|--2-------|----------------------------|
--0--3--------0--2--3-------|----------|----------------------------|
----------------------------|----------|----------------------------|


-----0--1--0-----0--1--0----|--------0-----------0-------|
----------------------------|-----3-----3-----3-----3----|
--0-----------0-------------|----------------------------|
----------------------------|--3-----------3-------------|
----------------------------|----------------------------|
----------------------------|----------------------------|


--------0-------------------|-----------0-----------0----|
-----3-----3-----2--3--2----|-----0--3-----------1-------|
----------------------------|-----------------2----------|
--2-----------2-------------|--0-------------------------|
----------------------------|--------------3-------------|
----------------------------|----------------------------|


-----------0-----------1----|----------------------------|
-----0--3-----------3-------|--------0--4--------0--4----|
-----------------0----------|----------------------------|
----------------------------|-----1-----------1----------|
--2-----------0-------------|--2-----------2-------------|
----------------------------|----------------------------|


-----------0----------------|-----0--1--0-----0--1--0----|
--------0-----3--0----------|----------------------------|
-----1--------------1-------|--2-----------2-------------|
--2--------------------2----|----------------------------|
----------------------------|----------------------------|
----------------------------|----------------------------|


-----0--1--0-----0--1--0----|--------0-----------0-------|
----------------------------|-----3-----3-----3-----3----|
--0-----------0-------------|----------------------------|
----------------------------|--3-----------3-------------|
----------------------------|----------------------------|
----------------------------|----------------------------|


--------0-------------------|-----------0-----------0----|
-----3-----3-----2--3--2----|-----0--3-----------3-------|
----------------------------|-----------------2----------|
--2-----------2-------------|--0-------------------------|
----------------------------|--------------3-------------|
----------------------------|----------------------------|


-----------0-----------0----|----------------------------|
-----0--3-----------1-------|----------------------------|
-----------------1----------|----------------------------|
----------------------------|--------2--3-----------0----|
--3-----------2-------------|--0--3--------0--2--3-------|
----------------------------|----------------------------|


----------------------------------------------------|
----------------------------------------------------|
----------------------------------------------------|
--2-----------------------0-----3-----2-------------|
--------------------------------------------3-------|
----------------------------------------------------|


----------------------------|----------------------------|
--------6--5--------6--5----|--------6--5--------6--5----|
-----2-----------2----------|-----0-----------0----------|
----------------------------|----------------------------|
--0-------------------------|----------------------------|
----------------------------|--3-------------------------|


----------------------------|
----------------------------|
--------9--7--------9--7----|
-----3-----------3----------|
----------------------------|
--1-------------------------|


----------------------------------------------------------------------------|
----------------------------------------------------------------------------|
-----------7--------9--------7-----------------5--------7--------5--7--9----|
--2-----------------------------------2-------------------------------------|
----------------------------------------------------------------------------|
----------------------------------------------------------------------------|


----------------------------|----------------------------|
--------6--5--------6--5----|--------6--5--------6--5----|
-----2-----------2----------|-----0-----------0----------|
----------------------------|----------------------------|
--0-------------------------|----------------------------|
----------------------------|--3-------------------------|


----------------------------|
----------------------------|
--------9--7--------9--7----|
-----3-----------3----------|
----------------------------|
--1-------------------------|


----------------------------------------------------------------------------|
----------------------------------------------------------------------------|
-----------7--------9--------7-----------------5--------7--------5--7--9----|
--2-----------------------------------2-------------------------------------|
----------------------------------------------------------------------------|
----------------------------------------------------------------------------|


----------------------------|----------------------------|
--------6--5--------6--5----|--------6--5--------6--5----|
-----2-----------2----------|-----0-----------0----------|
----------------------------|----------------------------|
--0-------------------------|----------------------------|
----------------------------|--3-------------------------|


----------------------------|
----------------------------|
--------9--7--------9--7----|
-----3-----------3----------|
----------------------------|
--1-------------------------|


----------------------------------------------------------------------------|
----------------------------------------------------------------------------|
-----------7--------9--------7-----------------5--------7--------5--7--9----|
--2-----------------------------------2-------------------------------------|
----------------------------------------------------------------------------|
----------------------------------------------------------------------------|


----------------------------|----------------------------|
--------6--5--------6--5----|--------6--5--------6--5----|
-----2-----------2----------|-----0-----------0----------|
----------------------------|----------------------------|
--0-------------------------|----------------------------|
----------------------------|--3-------------------------|


----------------------------|
----------------------------|
--------9--7--------9--7----|
-----3-----------3----------|
----------------------------|
--1-------------------------|


----------------------------------------------------------------------------|
----------------------------------------------------------------------------|
-----------7--------9--------7-----------------5--------7--------5--7--9----|
--2-----------------------------------2-------------------------------------|
----------------------------------------------------------------------------|
----------------------------------------------------------------------------|


-------|----------------------------------------------------|
--5----|----------------------------------------------------|
--2----|--------2-----3-----2-----------2-----3-----2-------|
--2----|--0-----------------------0-------------------------|
-------|----------------------------------------------------|
-------|----------------------------------------------------|


----------------------------|----------------------------|
----------------------------|----------------------------|
-----2--3--2-----2--3--2----|-----0--2--0-----0--2--0----|
----------------------------|----------------------------|
--3-----------3-------------|--1-----------1-------------|
----------------------------|----------------------------|


----------------------------|----------------------------|
----------------------------|----------------------------|
-----0--2--0--------0-------|--------0--2-----------2----|
-----------------4-----4----|-----2-----------0--3-------|
--0-----------0-------------|----------------------------|
----------------------------|--3-----------1-------------|


----------------------------|----------------------------|
----------------------------|----------------------------|
--------0--2-----------2----|-----------1-----------1----|
-----3--------------5-------|--------2-----------2-------|
----------------------------|----------------------------|
--1-----------1--5----------|--0--4--------0--4----------|


----------------------------|----------------------------|
----------------------------|----------------------------|
-----------2--0-------------|-----2--3--2-----2--3--2----|
--------2--------2----------|--0-----------0-------------|
--0--4--------------4--0----|----------------------------|
----------------------------|----------------------------|


----------------------------|----------------------------|
----------------------------|----------------------------|
-----2--3--2-----2--3--2----|-----0--2--0-----0--2--0----|
----------------------------|----------------------------|
--3-----------3-------------|--1-----------1-------------|
----------------------------|----------------------------|


----------------------------|----------------------------|
----------------------------|----------------------------|
-----0--2--0--------0-------|--------0--2--------0--2----|
-----------------4-----4----|-----2-----------0----------|
--0-----------0-------------|----------------------------|
----------------------------|--3-----------1-------------|


----------------------------|----------------------------|-------|----||
----------------------------|----------------------------|-------|----||
--------0--2-----------2----|----------------------------|-------|----||
-----3--------------2-------|----------------------------|-------|----||
-----------------4----------|-----------0----------------|--0----|----||
--1-----------0-------------|-----1--3--------0--1--3----|-------|----||



Distortion guitar



E |----|----|----|----|----|----|----|----|----|----|----|----|----|----|----|
B |----|----|----|----|----|----|----|----|----|----|----|----|----|----|----|
G |----|----|----|----|----|----|----|----|----|----|----|----|----|----|----|
D |----|----|----|----|----|----|----|----|----|----|----|----|----|----|----|
A |----|----|----|----|----|----|----|----|----|----|----|----|----|----|----|
E |----|----|----|----|----|----|----|----|----|----|----|----|----|----|----|


----|----|----|----|----|----|----|----|----|----|----|----|----|----|
----|----|----|----|----|----|----|----|----|----|----|----|----|----|
----|----|----|----|----|----|----|----|----|----|----|----|----|----|
----|----|----|----|----|----|----|----|----|----|----|----|----|----|
----|----|----|----|----|----|----|----|----|----|----|----|----|----|
----|----|----|----|----|----|----|----|----|----|----|----|----|----|


----------------------------|----------------------------|
----------------------------|----------------------------|
----------------------------|----------------------------|
-----2--3--2-----2--3--2----|-----2--3--2-----2--3--2----|
--0-----------0-------------|----------------------------|
----------------------------|--3-----------3-------------|


----------------------------|----------------------------|
----------------------------|----------------------------|
----------------------------|----------------------------|
-----0--2--0-----0--2--0----|----------------------------|
----------------------------|-----5--7--5-----4--5--4----|
--1-----------1-------------|--0-----------0-------------|


----------------------------|----------------------------|
----------------------------|----------------------------|
----------------------------|----------------------------|
-----------2-----------2----|-----------2-----------2----|
--5--2--5-----3-----3-------|--3--2--5-----2-----2-------|
-----------------5----------|-----------------4----------|


----------------------------|
----------------------------|
----------------------------|
--------2--3-----------0----|
--0--3--------0--2--3-------|
----------------------------|


----------------------------------------------------|-------|----|----|----|
----------------------------------------------------|-------|----|----|----|
----------------------------------------------------|-------|----|----|----|
--------------------------0-----3-----2-------------|-------|----|----|----|
--5b----------------------------------------3-------|-------|----|----|----|
----------------------------------------------------|--3b---|----|----|----|


-------|-------|-------|-------|----------------------------|
-------|-------|-------|-------|----------------------------|
-------|-------|-------|-------|----------------------------|
--7----|--5----|--3----|--2----|--------3--2--------3--2----|
--7----|--5----|--3----|--2----|--0L-0-----------0----------|
--5----|--3----|--1----|--0----|----------------------------|


----------------------------|----------------------------|
----------------------------|----------------------------|
----------------------------|----------------------------|
--------3--2--------3--2----|--------2--0--------2--0----|
----------------------------|----------------------------|
--3L-3-----------3----------|--1L-1-----------1----------|


----------------------------|----------------------------|
----------------------------|----------------------------|
----------------------------|----------------------------|
----------------------------|--------3--2--------3--2----|
--------7--5--------5--4----|--0--0-----------0----------|
--0L-0-----------0----------|----------------------------|


----------------------------|----------------------------|
----------------------------|----------------------------|
----------------------------|----------------------------|
--------3--2--------3--2----|--------2--0--------2--0----|
----------------------------|----------------------------|
--3--3-----------3----------|--1--1-----------1----------|


----------------------------|----------|----|----|----|----|----|----|----|----|
----------------------------|----------|----|----|----|----|----|----|----|----|
----------------------------|----------|----|----|----|----|----|----|----|----|
----------------------------|----------|----|----|----|----|----|----|----|----|
--------7--5--------5--4----|--0-------|----|----|----|----|----|----|----|----|
--0--0-----------0----------|--0-------|----|----|----|----|----|----|----|----|


----------------------------|----------------------------|
----------------------------|----------------------------|
-----2--3--2-----2--3--2----|-----2--3--2-----2--3--2----|
--0-----------0-------------|----------------------------|
----------------------------|--3-----------3-------------|
----------------------------|----------------------------|


----------------------------|----------------------------|
----------------------------|----------------------------|
-----0--2--0-----0--2--0----|----------------------------|
----------------------------|-----5--7--5-----4--5--4----|
--1-----------1-------------|--0-----------0-------------|
----------------------------|----------------------------|


----------------------------|----------------------------|
----------------------------|----------------------------|
--------0--2--------0--2----|--------0--2-----------2----|
-----2-----------0----------|-----3--------------2-------|
----------------------------|-----------------4----------|
--3-----------1-------------|--1-----------0-------------|


----------------------------|-------|----||
----------------------------|-------|----||
----------------------------|-------|----||
----------------------------|-------|----||
--5--5-----0----------------|--0----|----||
--------3-----0--0--1--3----|-------|----||



Bass


G |----|----|----|----|----|----|----|----|----|----|----|----|----|
D |----|----|----|----|----|----|----|----|----|----|----|----|----|
A |----|----|----|----|----|----|----|----|----|----|----|----|----|
E |----|----|----|----|----|----|----|----|----|----|----|----|----|


----------------|----------------|----------------|----------------------------|
-----------7----|--5-------------|--10-9--7--9----|--9-------------------------|
----------------|-----------7----|----------------|-----------------8--7--5----|
--5-------------|----------------|----------------|----------------------------|


----------------------------|----------------------------|
----------------------------|-----------------------5----|
--5--------------------5----|--8--------------5--8-------|
-----------------5--8-------|----------------------------|


----------------------------|-------|----------------------------|
--7--------9--10-------12---|--14---|----------------------------|
----------------------------|-------|----------------------------|
----------------------------|-------|--5--------------------5----|


----------------------------|----------------------------|----------------|
----------------------------|----------------------------|----------------|
----------------------------|----------------------------|----------------|
--3--------------------3----|--1--------------------1----|--0-----3--5----|


----------------------------|----------------|-------|-------|
----------------------------|----------------|-------|--2----|
--5-----------3-----3-------|--2-----0--5----|--2----|-------|
-----------------5----------|----------------|-------|-------|


----------------------------|----------------------------|
----------------------------|----------------------------|
----------------------------|----------------------------|
--5--------------------5----|--3--------------------3----|


----------------------------|----------------|----------------------------|
----------------------------|----------------|----------------------------|
----------------------------|----------------|--5-----------3-----3-------|
--1--------------------1----|--0-----3--5----|-----------------5----------|


----------------|-------|-------|-------|-------|-------|-------|
----------------|-------|--2----|-------|-------|-------|-------|
--2-----0--5----|--2----|-------|-------|-------|-------|-------|
----------------|-------|-------|--5----|--3----|--1----|--0----|


----------------------------------------------------|
--------------------7L----------------7-------------|
--------------7-------------------------------------|
--5-------------------------------------------------|


----------------------------------------------------|
--------------------5L----------------5-------------|
--------------5-------------------------------------|
--3-------------------------------------------------|


----------------------------------------------------|
--------------------3L----------------3-------------|
--------------3-------------------------------------|
--1-------------------------------------------------|


----------------------------------------------------|
--------------------2L----------------2-------------|
--------------2-------------------------------------|
--0-------------------------------------------------|


----------------------------------------------------|
--------------3--------2--------0h-2h-3-----2-------|
--0-----0-----------0--------0----------------------|
----------------------------------------------------|


----------------------------------------------------|
--------------3--------2--------0h-2h-3-----2-------|
----------------------------------------------------|
--3-----3-----------3--------3----------------------|


----------------------------------------------------|
--------------2--------2--------------2-----0-------|
----------------------------------------------------|
--1-----1-----------1--------0h-1h-3----------------|


----------------------------------------------------|
----------------------------------------------------|
--------------7--------5--------0h-4h-5-----4-------|
--0-----0-----------0--------0----------------------|


----------------------------------------------------|
--------------3--------2--------0h-2h-3-----2-------|
--0-----0-----------0--------0----------------------|
----------------------------------------------------|


----------------------------------------------------|
--------------3--------2--------0h-2h-3-----2-------|
----------------------------------------------------|
--3-----3-----------3--------3----------------------|


----------------------------------------------------|
--------------2--------2--------------2-----0-------|
----------------------------------------------------|
--1-----1-----------1--------0h-1h-3----------------|


----------------------------------------------------|-------|
----------------------------------------------------|-------|
--------------7--------5--------0h-4h-5-----4-------|--0----|
--0-----0-----------0--------0----------------------|-------|


----------------------------------------------------|
----------------------------------------------------|
--5--------5--5-----------------------------5-------|
----------------------------------------------------|


----------------------------------------------------|
----------------------------------------------------|
--3--------3--3-----------------------------3-------|
----------------------------------------------------|


----------------------------------------------------|----------------|-------|
----------------------------------------------------|----------------|-------|
--1--------1--1-----------------------------1-------|--0-----0--0----|-------|
----------------------------------------------------|----------------|--3----|


-------|----------------------------|-------|
-------|----------------------------|-------|
-------|----------------------------|-------|
--0----|--0--4-----0--4-----0--4----|--5----|


----------------------------------------------------|
----------------------------------------------------|
--5--------5--5-----5-----------------------5-------|
----------------------------------------------------|


----------------------------------------------------|
----------------------------------------------------|
--3--------3--3-----3-----------------------3-------|
----------------------------------------------------|


----------------------------------------------------|----------------|
----------------------------------------------------|----------------|
--1--------1--1-----1-----------------------1-------|--0-----0--0----|
----------------------------------------------------|----------------|


----------------------------|----------------------------|
----------------------------|----------------------------|
----------------------------|----------------------------|
--3--------------------3----|--0--------------------0----|


----------------------------|-------|----||
----------------------------|-------|----||
--5-------------------------|-------|----||
--------------5--------7----|--9----|----||

Login or Register to remove this ad.