Main Theme (Final Fantasy II) Bass/Guitar Tab

Submitted: Sep 20, 2009 by auriplane (Last updated: Apr 05, 2010)

5
Average: 5 (5 votes)
Download | Listen
Game: Final Fantasy II
Composer(s): Nobuo Uematsu
Style: 2 or more instruments, Alternate picking, Transcription
Series: Final Fantasy

AutoScroll: Slow | Medium | Fast
                 Final Fantasy II - Main Theme GUITAR & BASS TAB
                              Song by Nobuo Uematsu

                     Tabbed by auriplane ([email protected])





                               GUITAR PART (MELODY)

      |---3--|                                                           
      S  S   S T  T   T T      H.            Q        H.           Q     
e||------------------------|----------------12----|---------------------|
B||---------------------9h-|--10------------------|--12-----------------|
G||*-----------7h-9h-11----|----------------------|----------------9----|
D||*--7h-9h-10-------------|----------------------|---------------------|
A||------------------------|----------------------|---------------------|
E||------------------------|----------------------|---------------------|


   Q     Q     Q     Q        H        H            H         E   E   E   E   
--------------------------|---------------------|----------------------------|
--13----12----10----12----|---------------------|--------------------10--13--|
--------------------------|--12--------9--------|--10---------L--10----------|
--------------------------|---------------------|----------------------------|
--------------------------|---------------------|----------------------------|
--------------------------|---------------------|----------------------------|


   Q     Q     Q     Q        H.            Q        W                 
--12----10----15----13----|--11------------------|--12----------------|
--------------------------|----------------12----|--------------------|
--------------------------|----------------------|--------------------|
--------------------------|----------------------|--------------------|
--------------------------|----------------------|--------------------|
--------------------------|----------------------|--------------------|


   H.            Q        H.           Q        Q     Q     Q     Q     
----------------12----|---------------------|--------------------------|
--10------------------|--12-----------------|--13----12----10----12----|
----------------------|----------------9----|--------------------------|
----------------------|---------------------|--------------------------|
----------------------|---------------------|--------------------------|
----------------------|---------------------|--------------------------|


   H        H            H         E   E   E   E      Q     Q     Q    Q     
---------------------|----------------------------|-------------------------|
---------------------|------------------------10--|--13----11----10----9----|
--12--------9--------|--10---------L--10--12------|-------------------------|
---------------------|----------------------------|-------------------------|
---------------------|----------------------------|-------------------------|
---------------------|----------------------------|-------------------------|


   Q.      E   Q.      E      W                   
----------------------10--|--12-----------------||
--10------12--13----------|---------------------||
--------------------------|--------------------*||
--------------------------|--------------------*||
--------------------------|---------------------||
--------------------------|---------------------||





                                BASS PART (HARMONY)


      Q       E  E   E  E  E  E   E  E      E  E   E  E   E  E   E  E   
G||--------|-----9--10--9-----9--10--9--|------9--10--9------9--10--9--|
D||*-------|--7------------7------------|------------------------------|
A||*-------|----------------------------|--10------------10------------|
E||--------|----------------------------|------------------------------|


  E  E  E  E  E  E  E  E     E  E  E  E  E  E  E  E      E  E   E  E  E  E   E  E   
-----7--9--7-----7--9--7--|-----7--9--7-----6--7--6--|-------------9------------9--|
--------------------------|--------------------------|------9--10--------7--10-----|
--8-----------8-----------|--7-----------7-----------|-----------------------------|
--------------------------|--------------------------|--10------------8------------|


  E  E  E   E  E   E  E   E     E  E  E  E  E  E  E  E     E  E  E  E  E  E  E  E   
--------7--10---------7--10--|-----------8-----------8--|-----------9--7-----------|
-----9------------10---------|-----7--8-----------9-----|-----7--9--------9--6-----|
-----------------------------|--6--------------9--------|--7--------------------7--|
--7------------6-------------|--------------7-----------|--------------------------|


  E  E   E  E  E  E   E  E      E  E   E  E   E  E   E  E     E  E  E  E  E  E  E  E   
-----9--10--9-----9--10--9--|------9--10--9------9--10--9--|-----7--9--7-----7--9--7--|
--7------------7------------|------------------------------|--------------------------|
----------------------------|--10------------10------------|--8-----------8-----------|
----------------------------|------------------------------|--------------------------|


  E  E  E  E  E  E  E  E      E  E   E  E  E  E   E  E     E  E  E   E  E  E  E  E   
-----7--9--7-----6--7--6--|-------------9------------9--|--------7--10-----------9--|
--------------------------|------9--10--------7--10-----|-----7------------7--9-----|
--7-----------7-----------|-----------------------------|---------------------------|
--------------------------|--10------------8------------|--6------------7-----------|


  E  E  E   E  E  E  E   E     E  E  E  E  H            
--------9--10-----------10--|-----------7--9~---------||
--7--9------------7--9------|-----7--9---------------*||
---------------8------------|--7---------------------*||
----------------------------|-------------------------||




Duration Legend
---------------
W - whole
H - half
Q - quarter
E - 8th
S - 16th
T - 32nd
. - note dotted
|-n-|  - n-tuplets


Tablature Legend
----------------
L - tied note
h - hammer on
Login or Register to remove this ad.

5 comments on Main Theme

It might help if.

4

It might help people get it better if you put the bass tab lined up with the guitar tab to make it reasonably shown. But overall good tab. Thanks lots ^_^

Everyone complains and rates

Everyone complains and rates down if you do that ;-)

Sorry to reply twice, but I

Sorry to reply twice, but I figured I might as well reformat it for you:

Reformatted version of the tab

I won't put that as the main version though, 'cause people seem to hate that. Hehe

Now that's

5

NOW THAT is what I'm talking about. thanks a lot. Some people complain endlessly about having those things attached but for me, it's easier. Thank you very much.

Great tab!

5

Great tab!