Battle Scene 2 (Final Fantasy II) Guitar Tab

Submitted: Jun 25, 2011 by BacardiBreezer

3
Average: 3 (1 vote)
Download | Listen
Game: Final Fantasy II
Composer(s): Nobuo Uematsu
Style: Transcription
Series: Final Fantasy

AutoScroll: Slow | Medium | Fast
Battle Scene 2
Final Fantasy II
Composer: Nobuo Uematsu
Tabbed by Bacardibreezer
6/21/11

e|--10--11--12--13----10--11--12--13--|
B|------------------------------------|
G|------------------------------------|
D|------------------------------------|
A|------------------------------------|
E|------------------------------------|

e|--10--8-------------10--8------------10-8--------10-8------------10-8-------8------------------------------------|
B|---------11--10------------11--10---------11-10-------11-10-----------11-10---11-10----11-10-------10------------|
G|------------------------------------------------------------------------------------12-------12-11----12-11------|
D|------------------------------------------------------------------------------------------------------------13---|
A|-----------------------------------------------------------------------------------------------------------------|
E|-----------------------------------------------------------------------------------------------------------------|

e|---------------10-9---------------------------------------------13-12~---11~----------------------------------------------------------|
B|------------11------11------------------11-10-------16-15-----------------------------------------------------------------------------|
G|---------12------------12----10-9-------------11-12-------14-15-----------------------------------------------------------------------|
D|--12-13---------------------------11-12----------------------------------------11-12--11-12--11-12--11-12--11-12--11-12--11-12--11-12-|
A|--------------------------------------------------------------------------------------------------------------------------------------|
E|--------------------------------------------------------------------------------------------------------------------------------------| x2

e|--------------------------------------------------------------------------------------------|
B|--------13-15---16-15--13-11-----11------------------15~------13---11----14~----11----15~---|
G|--14-15-----------------------14-----14-12---11------------10---------12-----------12-------|
D|-------------------------------------------------12-----------------------------------------|
A|--------------------------------------------------------------------------------------------|
E|--------------------------------------------------------------------------------------------|

e|---------------------------------------------------------------------------------------------------------|
B|--------13-15---16-15--13-11-----11------------------15~------13---------13-15-16-15-13-------------15~--|
G|--14-15-----------------------14-----14-12---11------------10------13-15----------------15----14-11------|
D|-------------------------------------------------12------------------------------------------------------|
A|---------------------------------------------------------------------------------------------------------|
E|---------------------------------------------------------------------------------------------------------|

e|--------------------------------------------------------|
B|--------------------------------------------------------|
G|--14-13-12-11-----------------14-13-12-11---------------|
D|--------------15-14-13-12-----------------15-14-13-12---|
A|--------------------------------------------------------|
E|--------------------------------------------------------|

e|--------------------------------------------------------|
B|-----------13-----------13-----------13-----------13----|
G|-----11-14--------11-14--------11-14--------11-14-------|
D|--13-----------13-----------13-----------13-------------|
A|--------------------------------------------------------|
E|--------------------------------------------------------|

e|--------------------------------------------------------|
B|--------------------------------------------------------|
G|--14-13-12-11-----------------14-13-12-11---------------|
D|--------------15-14-13-12-----------------15-14-13-12---|
A|--------------------------------------------------------|
E|--------------------------------------------------------|

e|--------------------------------------------------------------12---|
B|-----------------------------------14----12-15----13-16----14------|
G|--------14----12-15----13-16----15----13-------14-------14---------|
D|--13-16----14-------15-------16------------------------------------|
A|-------------------------------------------------------------------|
E|-------------------------------------------------------------------|

e|----------------------------------------------------|
B|--18--17----16----15~-----16--15-------------15-----|
G|---------------17-------------------17-15-14--------|
D|----------------------------------------------------|
A|----------------------------------------------------|
E|----------------------------------------------------|


Login or Register to remove this ad.