Ancient Castle (Final Fantasy II) Ukulele Tab

Submitted: Jun 05, 2019 by Binarynova (Last updated: Jun 23, 2019)

0
Download | No audio :(
Game: Final Fantasy II
Composer(s): Nobuo Uematsu
Style: Transcription
Series: Final Fantasy

AutoScroll: Slow | Medium | Fast
Title: "Kashuan Keep"
Game: Final Fantasy II
Platform: Nintendo Entertainment System

Composed by: Nobuo Uematsu
Tabbed by: Binarynova
Finished: Jun. 6, 2019

Tuning: Standard
Time Signature: 4/4

    E  E  E  E  Q     E  E   Q     E  E  Q     Q     W           
A||----------7--5----------|-----------------------|------------|
E||-5--7--8-----------5--7-|-8-----7--5--3-----7---|-5----------|
C||------------------------|-----------------------|------------|
G||------------------------|-----------------------|------------|

                Q     Q       W               E  E  E  E  E  E  E  
A||-------------7-----10----|-9----------|----5--5--7--8--7--5--8-|
E||-------------------------|------------|------------------------|
C||-------------------------|------------|------------------------|
G||-------------------------|------------|------------------------|

    Q     E  E                           Q     Q       W           
A||-7----------------------|-------------------7-----|-5----------|
E||-------8--5-------------|-------------8-----------|------------|
C||------------------------|-------------------------|------------|
G||------------------------|-------------------------|------------|

       E  E  E  E  E  E  E   Q.       Q     Q  E  E   E  Q       E   Q
A||------------------------|----------------5-------|---------------------------|
E||----5--5--7--8--7--5--8-|-7--------5--------8--5-|-5--4-----4h5---7----------|
C||------------------------|------------------------|---------------------------|
G||------------------------|------------------------|---------------------------|
Login or Register to remove this ad.