Ancient Castle (Final Fantasy II) Bass/Guitar Tab

Submitted: May 24, 2015 by hashel

0
Download | Listen
Game: Final Fantasy II
Composer(s): Nobuo Uematsu
Style: 2 or more instruments, Arrangement
Series: Final Fantasy

Click here for a video example.

AutoScroll: Slow | Medium | Fast
Title: Ancient Castle (Hashel05 version)
Artist: Nobuo Uematsu
Album: Final Fantasy II
Tabber: Hashel05
Tempo = 130

Please download the gp5 file for all the tracks =)

Melody



E |----|-------|-------|-------|-------|-------|-------|-------|-------|-------|
B |----|-------|-------|-------|-------|-------|-------|-------|-------|-------|
G |----|-------|-------|-------|-------|-------|-------|-------|-------|-------|
D |----|-------|-------|-------|-------|-------|-------|-------|-------|-------|
A |----|-------|-------|-------|-------|-------|-------|-------|-------|-------|
E |----|-------|-------|-------|-------|-------|-------|-------|-------|-------|


-------|-------|-------|-------|-------|-----------12---------------|
-------|-------|-------|-------|-------|-----12-13----15-------12---|
-------|-------|-------|-------|-------|--14----------------14------|
-------|-------|-------|-------|-------|----------------------------|
-------|-------|-------|-------|-------|----------------------------|
-------|-------|-------|-------|-------|----------------------------|


----------------------------|-------|--------12-15---|--14---|
--13----12----------12------|-------|----------------|-------|
-----------14-12------------|--14---|----------------|-------|
----------------------------|-------|----------------|-------|
----------------------------|-------|----------------|-------|
----------------------------|-------|----------------|-------|


-----------12-13-12----13---|--12------------------------|
-----15-------------15------|--------13------------------|
----------------------------|-----------14---------------|
----------------------------|----------------------------|
----------------------------|----------------------------|
----------------------------|----------------------------|


--------------------12------|-------|----------------------------|
--------------13------------|--15---|-----------12-13-12----13---|
--------14-14----14---------|-------|--------14----------14------|
----------------------------|-------|----------------------------|
----------------------------|-------|----------------------------|
----------------------------|-------|----------------------------|


----------------------------|
--12-------------15-13------|
--------------14-------14---|
----------------------------|
----------------------------|
----------------------------|


----------------------------------------------------|
--------------------------12------------------------|
--14----------------13-14---------------------------|
----------------------------------------------------|
----------------------------------------------------|
----------------------------------------------------|


-----------12---------------|----------------------------|-------|
-----12-13----15-------12---|--13----12----------12------|-------|
--14----------------14------|-----------14-12------------|--14---|
----------------------------|----------------------------|-------|
----------------------------|----------------------------|-------|
----------------------------|----------------------------|-------|


--------12-15---|--14---|-----------12-13-12----13---|
----------------|-------|-----15-------------15------|
----------------|-------|----------------------------|
----------------|-------|----------------------------|
----------------|-------|----------------------------|
----------------|-------|----------------------------|


--12------------------------|--------------------12------|-------|
--------13------------------|--------------13------------|--15---|
-----------14---------------|--------14-14----14---------|-------|
----------------------------|----------------------------|-------|
----------------------------|----------------------------|-------|
----------------------------|----------------------------|-------|


----------------------------|----------------------------|
-----------12-13-12----13---|--12-------------15-13------|
--------14----------14------|--------------14-------14---|
----------------------------|----------------------------|
----------------------------|----------------------------|
----------------------------|----------------------------|


----------------------------------------------------|----|----|----|----|----|
--------------------------12------------------------|----|----|----|----|----|
--14----------------13-14---------------------------|----|----|----|----|----|
----------------------------------------------------|----|----|----|----|----|
----------------------------------------------------|----|----|----|----|----|
----------------------------------------------------|----|----|----|----|----|


----|----|----|----|----|----|----|-----------12---------------|
----|----|----|----|----|----|----|-----12-13----15-------12---|
----|----|----|----|----|----|----|--14----------------14------|
----|----|----|----|----|----|----|----------------------------|
----|----|----|----|----|----|----|----------------------------|
----|----|----|----|----|----|----|----------------------------|


----------------------------|-------|--------12-15---|--14---|
--13----12----------12------|-------|----------------|-------|
-----------14-12------------|--14---|----------------|-------|
----------------------------|-------|----------------|-------|
----------------------------|-------|----------------|-------|
----------------------------|-------|----------------|-------|


-----------12-13-12----13---|--12------------------------|
-----15-------------15------|--------13------------------|
----------------------------|-----------14---------------|
----------------------------|----------------------------|
----------------------------|----------------------------|
----------------------------|----------------------------|


--------------------12------|-------|----------------------------|
--------------13------------|--15---|-----------12-13-12----13---|
--------14-14----14---------|-------|--------14----------14------|
----------------------------|-------|----------------------------|
----------------------------|-------|----------------------------|
----------------------------|-------|----------------------------|


----------------------------|
--12-------------15-13------|
--------------14-------14---|
----------------------------|
----------------------------|
----------------------------|


----------------------------------------------------|----|-------|
--------------------------12------------------------|----|-------|
--14----------------13-14---------------------------|----|-------|
----------------------------------------------------|----|-------|
----------------------------------------------------|----|-------|
----------------------------------------------------|----|-------|


-----------12---------------|----------------------------|-------|
-----12-13----15-------12---|--13----12----------12------|-------|
--14----------------14------|-----------14-12------------|--14---|
----------------------------|----------------------------|-------|
----------------------------|----------------------------|-------|
----------------------------|----------------------------|-------|


--------12-15---|--17---|-------|-------|-------|-----------12---------------|
----------------|-------|-------|-------|-------|-----12-13----15-------12---|
----------------|-------|-------|-------|-------|--14----------------14------|
----------------|-------|-------|-------|-------|----------------------------|
----------------|-------|-------|-------|-------|----------------------------|
----------------|-------|-------|-------|-------|----------------------------|


----------------------------|-------|--------12-15---|--14---|
--13----12----------12------|-------|----------------|-------|
-----------14-12------------|--14---|----------------|-------|
----------------------------|-------|----------------|-------|
----------------------------|-------|----------------|-------|
----------------------------|-------|----------------|-------|


-----------12-13-12----13---|--12------------------------|
-----15-------------15------|--------13------------------|
----------------------------|-----------14---------------|
----------------------------|----------------------------|
----------------------------|----------------------------|
----------------------------|----------------------------|


--------------------12------|-------|----------------------------|
--------------13------------|--15---|-----------12-13-12----13---|
--------14-14----14---------|-------|--------14----------14------|
----------------------------|-------|----------------------------|
----------------------------|-------|----------------------------|
----------------------------|-------|----------------------------|


----------------------------|
--12-------------15-13------|
--------------14-------14---|
----------------------------|
----------------------------|
----------------------------|


----------------------------------------------------|
--------------------------12------------------------|
--14----------------13-14---------------------------|
----------------------------------------------------|
----------------------------------------------------|
----------------------------------------------------|


--------------13------------|----------------------------|-------|
--13-15-16-15-------13-15---|--16----15-13-------15------|--13---|
----------------------------|--------------15------------|-------|
----------------------------|----------------------------|-------|
----------------------------|----------------------------|-------|
----------------------------|----------------------------|-------|


--------15-18---|--17---|-----13----15-16-15-13-16---|
----------------|-------|----------------------------|
----------------|-------|----------------------------|
----------------|-------|----------------------------|
----------------|-------|----------------------------|
----------------|-------|----------------------------|


--15------------------------|--------------------15------|--13---|
--------16-13---------------|--------13-13-16-13---------|-------|
----------------------------|----------------------------|-------|
----------------------------|----------------------------|-------|
----------------------------|----------------------------|-------|
----------------------------|----------------------------|-------|


----------------------------|-----------------13---------|
--------13-15-16-15-13-16---|--15----------13----16-13---|
----------------------------|----------------------------|
----------------------------|----------------------------|
----------------------------|----------------------------|
----------------------------|----------------------------|


----------------------------------------------------|----||
--13----------------12-13-15------------------------|----||
----------------------------------------------------|----||
----------------------------------------------------|----||
----------------------------------------------------|----||
----------------------------------------------------|----||



Rhythm & arpeggios



E |----|-------|-------|----------------------------|
B |----|-------|-------|----------------------------|
G |----|-------|-------|--9--9-----9--11-11----11---|
D |----|-------|-------|--10-10----10-12-12----12---|
A |----|-------|-------|----------------------------|
E |----|-------|-------|----------------------------|


----------------------------|----------------------------|
----------------------------|----------------------------|
--14-14----14-16-16----16---|----------------------------|
--15-15----15-17-17----17---|-----14-15-14----14-15-14---|
----------------------------|--12----------12------------|
----------------------------|----------------------------|


----------------------------|----------------------------|
----------------------------|----------------------------|
----------------------------|--9--9-----9--11-11----11---|
-----14-15-14----14-15-14---|--10-10----10-12-12----12---|
--12----------12------------|----------------------------|
----------------------------|----------------------------|


----------------------------|----------------------------|
----------------------------|----------------------------|
--14-14----14-16-16----16---|----------------------------|
--15-15----15-17-17----17---|-----14-15-14----14-15-14---|
----------------------------|--12----------12------------|
----------------------------|----------------------------|


----------------------------|----------------------------|
----------------------------|----------------------------|
----------------------------|--9--9-----9--11-11----11---|
-----14-15-14----14-15-14---|--10-10----10-12-12----12---|
--12----------12------------|----------------------------|
----------------------------|----------------------------|


----------------------------|----------------------------|
----------------------------|----------------------------|
--14-14----14-16-16----16---|----------------------------|
--15-15----15-17-17----17---|-----14-15-14----14-15-14---|
----------------------------|--12----------12------------|
----------------------------|----------------------------|


----------------------------|----------------------------|
----------------------------|----------------------------|
----------------------------|--9--9-----9--11-11----11---|
-----14-15-14----14-15-14---|--10-10----10-12-12----12---|
--12----------12------------|----------------------------|
----------------------------|----------------------------|


----------------------------|----------------------------|
----------------------------|----------------------------|
--14-14----14-16-16----16---|----------------------------|
--15-15----15-17-17----17---|-----14-15-14----14-15-14---|
----------------------------|--12----------12------------|
----------------------------|----------------------------|


----------------------------|-------|-------|-------|----------------|-------|
----------------------------|-------|-------|-------|----------------|-------|
----------------------------|--11---|--10---|--9----|--9-------------|--11---|
-----14-15-14----14-15-14---|--12---|--12---|--10---|--10------------|--12---|
--12----------12------------|-------|-------|-------|-----------12---|-------|
----------------------------|-------|-------|-------|----------------|-------|


-------|----------|----------|----------------------------|
-------|----------|-----9----|----------------------------|
--10---|--11-11---|--9--9----|--9--9-----9--11-11----11---|
--10---|--13-9----|--9-------|--10-10----10-12-12----12---|
-------|----------|----------|----------------------------|
-------|----------|----------|----------------------------|


----------------------------|----------------------------|
----------------------------|----------------------------|
--14-14----14-16-16----16---|----------------------------|
--15-15----15-17-17----17---|-----14-15-14----14-15-14---|
----------------------------|--12----------12------------|
----------------------------|----------------------------|


----------------------------|-------|-------|-------|----------------|-------|
----------------------------|-------|-------|-------|----------------|-------|
----------------------------|--11---|--10---|--9----|--9-------------|--11---|
-----14-15-14----14-15-14---|--12---|--12---|--10---|--10------------|--12---|
--12----------12------------|-------|-------|-------|-----------12---|-------|
----------------------------|-------|-------|-------|----------------|-------|


-------|----------|----------|----------------------------|
-------|----------|-----9----|----------------------------|
--10---|--11-11---|--9--9----|--9--9-----9--11-11----11---|
--10---|--13-9----|--9-------|--10-10----10-12-12----12---|
-------|----------|----------|----------------------------|
-------|----------|----------|----------------------------|


----------------------------|----------------------------|
----------------------------|----------------------------|
--14-14----14-16-16----16---|----------------------------|
--15-15----15-17-17----17---|-----14-15-14----14-15-14---|
----------------------------|--12----------12------------|
----------------------------|----------------------------|


----------------------------|-------|-------|-------|----------------|-------|
----------------------------|-------|-------|-------|----------------|-------|
----------------------------|--11---|--10---|--9----|--9-------------|--11---|
-----14-15-14----14-15-14---|--12---|--12---|--10---|--10------------|--12---|
--12----------12------------|-------|-------|-------|-----------12---|-------|
----------------------------|-------|-------|-------|----------------|-------|


-------|----------|----------|----------------------------|
-------|----------|-----9----|----------------------------|
--10---|--11-11---|--9--9----|--9--9-----9--11-11----11---|
--10---|--13-9----|--9-------|--10-10----10-12-12----12---|
-------|----------|----------|----------------------------|
-------|----------|----------|----------------------------|


----------------------------|----------------------------|
----------------------------|----------------------------|
--14-14----14-16-16----16---|----------------------------|
--15-15----15-17-17----17---|-----14-15-14----14-15-14---|
----------------------------|--12----------12------------|
----------------------------|----------------------------|


----------------------------|-------|-------|-------|----------------|-------|
----------------------------|-------|-------|-------|----------------|-------|
----------------------------|--11---|--10---|--9----|--9-------------|--11---|
-----14-15-14----14-15-14---|--12---|--12---|--10---|--10------------|--12---|
--12----------12------------|-------|-------|-------|-----------12---|-------|
----------------------------|-------|-------|-------|----------------|-------|


-------|----------|----------|-------|-------|-------|-------|-------|-------|
-------|----------|-----9----|-------|-------|-------|-------|-------|-------|
--10---|--11-11---|--9--9----|-------|-------|-------|-------|-------|-------|
--10---|--13-9----|--9-------|-------|-------|-------|-------|-------|-------|
-------|----------|----------|-------|-------|-------|-------|-------|-------|
-------|----------|----------|-------|-------|-------|-------|-------|-------|


-------|-------|-----------12---------------|----------------------------|
-------|-------|-----12-13----15-------12---|--13----12----------12------|
-------|-------|--14----------------14------|-----------14-12------------|
-------|-------|----------------------------|----------------------------|
-------|-------|----------------------------|----------------------------|
-------|-------|----------------------------|----------------------------|


-------|--------12-15---|--17---|-------|-------|-------|-------|-------|
-------|----------------|-------|-------|-------|-------|-------|-------|
--14---|----------------|-------|-------|-------|-------|-------|-------|
-------|----------------|-------|-------|-------|-------|-------|-------|
-------|----------------|-------|-------|-------|-------|-------|-------|
-------|----------------|-------|-------|-------|-------|-------|-------|


-------|-------|-------|-------|----------------------------|
-------|-------|-------|-------|--------------10-10----10---|
-------|-------|-------|-------|--12-12----12-10-10----10---|
-------|-------|-------|-------|--13-13----13---------------|
-------|-------|-------|-------|----------------------------|
-------|-------|-------|-------|----------------------------|


----------------------------|----------------------------|
--13-13----13-15-15----15---|----------------------------|
--13-13----13-15-15----15---|----------------------------|
----------------------------|-----17-18-17----17-18-17---|
----------------------------|--15----------15------------|
----------------------------|----------------------------|


----------------------------|-------|-------|-------|----------------|-------|
----------------------------|--10---|--9----|-------|----------------|-------|
----------------------------|--10---|--10---|--12---|--12------------|--14---|
-----17-18-17----17-18-17---|-------|-------|--13---|--13------------|--15---|
--15----------15------------|-------|-------|-------|----------------|-------|
----------------------------|-------|-------|-------|-----------15---|-------|


-------|----------|----------|----||
-------|--10-15---|--8--12---|----||
--13---|--11-14---|--7--12---|----||
--13---|----------|----------|----||
-------|----------|----------|----||
-------|----------|----------|----||



Chords



E |----|----|----|----|----|----|----|----|----|----|----|----|----|----|----|
B |----|----|----|----|----|----|----|----|----|----|----|----|----|----|----|
G |----|----|----|----|----|----|----|----|----|----|----|----|----|----|----|
D |----|----|----|----|----|----|----|----|----|----|----|----|----|----|----|
A |----|----|----|----|----|----|----|----|----|----|----|----|----|----|----|
E |----|----|----|----|----|----|----|----|----|----|----|----|----|----|----|


----------|----------|-------|-------|--2----|-------|-------|-------|--1----|
--1--3----|--1--3----|--1L---|--1----|--3----|--3----|--1L---|--1----|--3----|
--0--2----|--2--4----|--2L---|--2----|--2----|--3----|--0L---|--0----|--2----|
--2--4----|--3--5----|--2L---|--2----|--0----|--3----|--2L---|--2----|--0----|
--0--2----|--3--5----|--0L---|--0----|-------|--1----|--0L---|--0----|-------|
----------|----------|-------|-------|-------|-------|-------|-------|-------|


-------|-------|-------|----------|----------|-------|-------|--2----|-------|
-------|--0----|-------|--1--3----|--1--3----|--1L---|--1----|--3----|--3----|
--2----|--2----|--1----|--0--2----|--2--4----|--2L---|--2----|--2----|--3----|
--3----|--1----|--0----|--2--4----|--3--5----|--2L---|--2----|--0----|--3----|
--3----|--2----|--2----|--0--2----|--3--5----|--0L---|--0----|-------|--1----|
--1----|-------|--0----|----------|----------|-------|-------|-------|-------|


-------|-------|--1----|-------|-------|-------|----------|----------|-------|
--1L---|--1----|--3----|-------|--0----|-------|--1--3----|--1--3----|--1L---|
--0L---|--0----|--2----|--2----|--2----|--1----|--0--2----|--2--4----|--2L---|
--2L---|--2----|--0----|--3----|--1----|--0----|--2--4----|--3--5----|--2L---|
--0L---|--0----|-------|--3----|--2----|--2----|--0--2----|--3--5----|--0L---|
-------|-------|-------|--1----|-------|--0----|----------|----------|-------|


-------|--2----|-------|-------|-------|--1----|-------|-------|-------|
--1----|--3----|--3----|--1L---|--1----|--3----|-------|--0----|-------|
--2----|--2----|--3----|--0L---|--0----|--2----|--2----|--2----|--1----|
--2----|--0----|--3----|--2L---|--2----|--0----|--3----|--1----|--0----|
--0----|-------|--1----|--0L---|--0----|-------|--3----|--2----|--2----|
-------|-------|-------|-------|-------|-------|--1----|-------|--0----|


----------|----------|-------|-------|--14---|-------|-------|-------|--13---|
--13-15---|--13-15---|--13L--|--13---|--15---|--15---|--13L--|--13---|--15---|
--12-14---|--14-16---|--14L--|--14---|--14---|--15---|--12L--|--12---|--14---|
--14-16---|--15-17---|--14L--|--14---|--12---|--15---|--14L--|--14---|--12---|
--12-14---|--15-17---|--12L--|--12---|-------|--13---|--12L--|--12---|-------|
----------|----------|-------|-------|-------|-------|-------|-------|-------|


-------|-------|-------|----|----|----|----|----|----|----|----|----|----|----|
-------|--12---|-------|----|----|----|----|----|----|----|----|----|----|----|
--14---|--14---|--13---|----|----|----|----|----|----|----|----|----|----|----|
--15---|--13---|--12---|----|----|----|----|----|----|----|----|----|----|----|
--15---|--14---|--14---|----|----|----|----|----|----|----|----|----|----|----|
--13---|-------|--12---|----|----|----|----|----|----|----|----|----|----|----|


----|----|----|----|----|----|----|----|----|----|----|----|----|----|----|----|
----|----|----|----|----|----|----|----|----|----|----|----|----|----|----|----|
----|----|----|----|----|----|----|----|----|----|----|----|----|----|----|----|
----|----|----|----|----|----|----|----|----|----|----|----|----|----|----|----|
----|----|----|----|----|----|----|----|----|----|----|----|----|----|----|----|
----|----|----|----|----|----|----|----|----|----|----|----|----|----|----|----|


----|----|----|----|----|----|----|----||
----|----|----|----|----|----|----|----||
----|----|----|----|----|----|----|----||
----|----|----|----|----|----|----|----||
----|----|----|----|----|----|----|----||
----|----|----|----|----|----|----|----||



Bass



G |----|----|----|----|----|----|----|----|----|----|----|----|----|----|----|
D |----|----|----|----|----|----|----|----|----|----|----|----|----|----|----|
A |----|----|----|----|----|----|----|----|----|----|----|----|----|----|----|
E |----|----|----|----|----|----|----|----|----|----|----|----|----|----|----|


----------------|----------------|----------------------------|
----------------|----------------|--7--7--------7--7----------|
----------------|----------------|----------------------------|
----------------|----------------|----------------------------|


----------------------------|----------------------------|
--7--7----------------------|--------7--7----------------|
----------------------------|--5--5----------------------|
--------5--5----------------|----------------------------|


----------------------------|----------------------------|
--------7--7----------------|--------7--7----------------|
--5--5----------------------|----------------------------|
----------------------------|--5--5----------------------|


----------------------------|----------------------------|
--------7--7----------------|--------7--7----------------|
----------------------------|--5--5----------------------|
--5--5----------------------|----------------------------|


----------------------------|----------------------------|
--------10-10---------------|--------9--9----------------|
--8--8----------------------|----------------------------|
----------------------------|--7--7----------------------|


----------------------------|----------------------------|
--------9--9--------6--6----|----------------------------|
--7--7----------------------|----------------------------|
--------------7--7----------|----------------------------|


----------------------------|----------------------------|
----------------------------|--7--7--------7--7----------|
----------------------------|----------------------------|
----------------------------|----------------------------|


----------------------------|----------------------------|
--7--7----------------------|--------7--7----------------|
----------------------------|--5--5----------------------|
--------5--5----------------|----------------------------|


----------------------------|----------------------------|
--------7--7----------------|--------7--7----------------|
--5--5----------------------|----------------------------|
----------------------------|--5--5----------------------|


----------------------------|----------------------------|
--------7--7----------------|--------7--7----------------|
----------------------------|--5--5----------------------|
--5--5----------------------|----------------------------|


----------------------------|----------------------------|
--------10-10---------------|--------9--9----------------|
--8--8----------------------|----------------------------|
----------------------------|--7--7----------------------|


----------------------------|----------------|----------------|
--------9--9--------6--6----|----------------|----------------|
--7--7----------------------|----------------|----------------|
--------------7--7----------|----------------|----------------|


----------------------------|----------------------------|
--7--7--------7--7----------|--7--7----------------------|
----------------------------|----------------------------|
----------------------------|--------5--5----------------|


----------------------------|----------------------------|
--------7--7----------------|--------7--7----------------|
--5--5----------------------|--5--5----------------------|
----------------------------|----------------------------|


----------------------------|----------------------------|
--------7--7----------------|--------7--7----------------|
----------------------------|----------------------------|
--5--5----------------------|--5--5----------------------|


----------------------------|----------------------------|
--------7--7----------------|--------10-10---------------|
--5--5----------------------|--8--8----------------------|
----------------------------|----------------------------|


----------------------------|----------------------------|
--------9--9----------------|--------9--9--------6--6----|
----------------------------|--7--7----------------------|
--7--7----------------------|--------------7--7----------|


----------------------------|----------------------------|
----------------------------|----------------------------|
----------------------------|----------------------------|
----------------------------|----------------------------|


----------------------------|----------------------------|
--7--7--------7--7----------|--7--7----------------------|
----------------------------|----------------------------|
----------------------------|--------5--5----------------|


----------------------------|----------------------------|
--------7--7----------------|--------7--7----------------|
--5--5----------------------|--5--5----------------------|
----------------------------|----------------------------|


----------------------------|----------------------------|
--------7--7----------------|--------7--7----------------|
----------------------------|----------------------------|
--5--5----------------------|--5--5----------------------|


----------------------------|----------------------------|
--------7--7----------------|--------10-10---------------|
--5--5----------------------|--8--8----------------------|
----------------------------|----------------------------|


----------------------------|----------------------------|----|----|----|----|
--------9--9----------------|--------9--9--------6--6----|----|----|----|----|
----------------------------|--7--7----------------------|----|----|----|----|
--7--7----------------------|--------------7--7----------|----|----|----|----|


----|----|----|----|----|----|----|----|----|----|----|----|----|----|----|----|
----|----|----|----|----|----|----|----|----|----|----|----|----|----|----|----|
----|----|----|----|----|----|----|----|----|----|----|----|----|----|----|----|
----|----|----|----|----|----|----|----|----|----|----|----|----|----|----|----|


----|----|----|----|----|----|----------------------------|
----|----|----|----|----|----|--------10-10---------------|
----|----|----|----|----|----|----------------------------|
----|----|----|----|----|----|----------------------------|


----------------------------|----------------------------|-------|
--------11-11-------11------|--------10-10---------------|-------|
----------------------------|----------------------------|-------|
----------------------------|----------------------------|-------|


----------------------------|----------------------------|
--------10-10---------------|--------13-13---------------|
----------------------------|--11-11---------------------|
----------------------------|----------------------------|


----------------------------|--------12------------------|----||
--------12-12---------------|-----------12----------12---|----||
----------------------------|--10-10-------------10------|----||
----------------------------|----------------------------|----||
Login or Register to remove this ad.