Ads

Today Arrives, Becoming Tomorrow (Final Fantasy: Crystal Chronicles) Guitar Tab

Submitted: Aug 25, 2013 by HybridTruth

5
Average: 5 (2 votes)
Download | Listen
Game: Final Fantasy: Crystal Chronicles
Composer(s): Kumi Tanioka
Style: Transcription
Series: Final Fantasy

AutoScroll: Slow | Medium | Fast
e---10-----7-8-----7------------7---------------
B-------10------10---8h10p8--10---10------------
G-------------------------------------7---------
D-----------------------------------------------
A-----------------------------------------------
E-----------------------------------------------

e---10-----7-8-----7----------------7-----------
B-------10------10---8h10p8--7-8-10---10--------
G-----------------------------------------------
D-----------------------------------------------
A-----------------------------------------------
E-----------------------------------------------

e---10-----7-8--7-------8----12-10-8-7----------
B-------10--------10-8-----------------10h12p10-
G-----------------------------------------------
D-----------------------------------------------
A-----------------------------------------------
E-----------------------------------------------

e-----------------------------------------------
B---8-10-10/12-----13-12-10-8h10p8--------------
G-----------------------------------------------
D-----------------------------------------------
A-----------------------------------------------
E-----------------------------------------------
Login or Register to remove this ad.