Ads

Annual Festival (Final Fantasy: Crystal Chronicles) Guitar Tab

Submitted: Jan 22, 2023 by ironpencil (Last updated: Jan 23, 2023)

0
Download | No audio :(
Game: Final Fantasy: Crystal Chronicles
Composer(s): Kumi Tanioka
Style: Arrangement, Artificial harmonics, Fingerstyle
Series: Final Fantasy

AutoScroll: Slow | Medium | Fast

Title: Annual Festival
Artist: Kumi Tanioka
Album: Final Fantasy Crystal Chronicles Original Soundtrack
Author: 


Track 1: Track 1

   E  E  E  E  E  E  S  S  S  S    E  E  E  E  E  S  S  S  S  S  S    E  E  E  E  E  E  S  S  E
E|-------------------------------|----------------------------------|----------------------------|
B|-0-----1-----3-----1-----1-----|-0-----1-----3--1--0--1--0--------|-0-----1-----3-----1-----1--|
G|-0--0-----0-----0-----0-----0--|-0--0-----0-----------------2--0--|-0--0-----0-----0-----0-----|
D|-0-----------------------------|-0--------------------------------|-0--------------------------|
A|-------------------------------|----------------------------------|----------------------------|
E|-3-----------------------------|-3--------------------------------|-3--------------------------|


   S  S  S  S  S  S  S  S   E   E   Q    E   E   Q   E   E   Q    Q  E   S  S  Q  E  E
E|-------------------------------------|-3----------------------|-----------------------|
B|-0-----1--3--1--0-------------3------|-----3---5---0---1---3--|-----------------------|
G|-0--0--------------2--0--\2-------0--|-0----------------------|-2------0--2--0--0-----|
D|-0-----------------------------------|---------0---2----------|----0---------------0--|
A|-------------------------------------|---------------------2--|-3---------------------|
E|-3-----------------------------------|------------------------|--------------3--------|


   E   E   Q    E   E   Q      Q    E   S  S  Q    Q      E   E   Q    E   E   Q
E|\3-------------------------|--------------------------|\3----------------2---3----|
B|-----3---5----0---1---3----|----------3--0------------|-----3---5----5------------|
G|-0-------------------------|-2--------------2---------|---------------------------|
D|---------0----2------------|----------------0----0----|-2-------2----0-------0----|
A|----------------------2----|-3----0-------------------|---------------------------|
E|---------------------------|--------------------------|---------------------------|


   E   E   Q    Q    Q      E   E   E   E   Q    Q      Q    E   S  S  Q    Q
E|-5---3---2----0----2----|-----------------0----3----|--------------------------|
B|------------------------|-3---2-------3-------------|----------3--0------------|
G|------------------------|---------4-----------------|-2--------------2---------|
D|--------------4---------|-----------------2----2----|----------------0----0----|
A|-4-------4---------1----|-2-------2-----------------|-0----0-------------------|
E|------------------------|---------------------------|--------------------------|

             A.H.                A.H. 
   Q   Q   Q   Q     Q   Q   H     Q   E  E  E  E  E  E    E  E  E  E  E  E  E  E
E|-----------------|-------------|-2---0-----------------|-0----------------------|
B|-4---------------|-------------|--------0--3--1--0--1--|----3--3--1--1--0-------|
G|--------<4>------|-------------|-----------------------|-------------------4--2-|
D|------------<4>--|-------------|-----------------------|-0-----------0-----4----|
A|-2---2-----------|-2---2--<2>--|-----------0-----------|------------------------|
E|-----------------|-------------|-0---------------------|------------------------|


                         Build up strumming before repeat
   Q    Q    Q    Q      E   E   E   E   E   E   E   E
E|---------------------|---------------------------------|
B|---------------------|-3---3---3---3---3---3---3---3---|
G|-0-------------------|-2---2---2---2---2---2---2---2---|
D|-0---------0---------|---------2---2---0---0---0---0---|
A|------0---------0----|-0---0---------------------------|
E|---------------------|---------------------------------|



Login or Register to remove this ad.

1 comment on Annual Festival

Failed the formatting

The last two lines are the second ending of a repition starting at measure 5
the guitar pro file and pdf in the attached file should be more accurate.

first ending

  E   E   E   E   Q    Q      Q    E   S  S  Q    Q
E|-----------------0----3----|--------------------------|
B|-3---2-------3-------------|----------3--0------------|
G|---------4-----------------|-2--------------2---------|
D|-----------------2----2----|----------------0----0----|
A|-2-------2-----------------|-0----0-------------------|
E|---------------------------|--------------------------|


second ending

             A.H.                A.H. 
   Q   Q   Q   Q     Q   Q   H     Q   E  E  E  E  E  E    E  E  E  E  E  E  E  E
E|-----------------|-------------|-2---0-----------------|-0----------------------|
B|-4---------------|-------------|--------0--3--1--0--1--|----3--3--1--1--0-------|
G|--------<4>------|-------------|-----------------------|-------------------4--2-|
D|------------<4>--|-------------|-----------------------|-0-----------0-----4----|
A|-2---2-----------|-2---2--<2>--|-----------0-----------|------------------------|
E|-----------------|-------------|-0---------------------|------------------------|

                         Build up strumming before repeat
   Q    Q    Q    Q      E   E   E   E   E   E   E   E
E|---------------------|---------------------------------|
B|---------------------|-3---3---3---3---3---3---3---3---|
G|-0-------------------|-2---2---2---2---2---2---2---2---|
D|-0---------0---------|---------2---2---0---0---0---0---|
A|------0---------0----|-0---0---------------------------|
E|---------------------|---------------------------------|