Ads

Rising Sun (Final Fantasy Adventure) Guitar Tab

Submitted: Feb 04, 2013 by N0Stars

5
Average: 5 (4 votes)
Download | Listen
Game: Final Fantasy Adventure
Composer(s): Kenji Ito
Style: Arrangement, Artificial harmonics, Fingerstyle, Natural harmonics
Series: Final Fantasy

AutoScroll: Slow | Medium | Fast
Final Fantasy Adventure - Rising Sun

Composed by Kenji Ito

Arranged for Solo Guitar by N0Stars

Gtr I (E A D G B E) - 'Untitled'

  Q=100
 4/4
  Gtr I
   W          E E E E E E E E   E E E E E E E E   E E E E E E E E
|-^3--------|---------0-------|---------0-------|-------0-5-0---0--|
|-^3--------|-----1-3---3-1---|-----1-3---3-1---|-----1-------3----|
|-^0--------|---0-----------0-|---0-----------0-|---2--------------|
|-----------|-----------------|-----------------|------------------|
|-----------|-3---------------|-3---------------|-0----------------|
|-----------|-----------------|-----------------|------------------|


  E E E E E E E E   E E E E E E E E   E E E E E E E E   E E E E E E E E
|-------0-5-0-----|-----------------|-----------------|---------0-------|
|-----1-------1-0-|-----------------|---------0-------|-----1-3---3-1---|
|---2-------------|-------0-2-0-----|-----0-2---2-0---|---0-----------0-|
|-----------------|-----3-------3---|---0-----------0-|-----------------|
|-0---------------|---3-----------3-|-----------------|-3---------------|
|-----------------|-1---------------|-3---------------|-----------------|


  H    H        E E E E E E E E   E E E E E E E E   E E E E E E E E
|-----------||----3-0---0-------|-----0-0-1-0-----|---3-0-0-5-0---0-|
|------3----||o-3---1-3---3-1---|---------3---3-1-|-3---1-------3---|
|-----------||----0-----------0-|---0---0-2-------|---2-----2-------|
|-----------||------------------|-----------------|-2-----------2---|
|-3---------||o-3---------------|-3-----------3---|-0---------------|
|-----------||--------------3---|-----------------|-----------------|


                                      1.
  E E E E E E E E   E E E E E E E E   E E E E Q  E E   E E E E E E E E
|-----0---3-------|-----------------|----------------|------------------||
|-1-----1-0-1-3---|-------------0-1-|-3-------0----1-|-3-------1---3---o||
|-2-2---------4-0-|-2-----0---2-0---|-----2-0----2---|-0---0-------0----||
|-2-------2---0---|-3---3---3---2---|-4-2-4---4------|-0-0---0-3-----0--||
|-0---------------|---3-------------|-5----------0---|-----------3-----o||
|-----------------|-1---------------|----------------|-----3------------||


  2.
  E E Q  Q.   E   E E E E E E E E   E E E E E E E E   E E E E E E E E
|-----0---------|---------0-------|---------0-------|-------0-5-0---0-|
|-3------3----1-|-1---1-3---3-1---|-----1-3---3-1---|-----1-------3---|
|---2----0------|---0-----------0-|---0-----------0-|-2-2-------------|
|-4------0------|-2---------------|-----------------|-2---------------|
|-5-------------|-3---------------|-3---------------|-0---------------|
|--------3------|-----------------|-----------------|-----------------|


  E E E E S S S S S S S S   E E E E E E E E
|-------0-5---0-----------|-----------------|
|-----1-----5---5---5---5-|-----------------|
|---2-------------5---4---|-2-----0-2-0-----|
|-------------------------|-3---3-------3---|
|-0-----------------------|---3-----------3-|
|-------------------------|-1---------------|


  E E E E E E E E   E E E E E E E E
|-----------------|---------0-------|
|-0-------0-------|-1---1-3---3-1---|
|-0---0-2---2-0---|---0-----------0-|
|---0-----------0-|-2---------------|
|-----------------|-3---------------|
|-3---------------|-----------------|


  H.=H             Q=80
  E E E E Q.   E   E E Q.     E   E    E
|----------------|---3-0----<12>-----<12>-|
|-1-----1-3----3-|-3-3-1---------[3]------|
|-----0---0------|---0--------------------|
|---2-----0------|------------------------|
|-3--------------|-3----------------------|
|---------3------|----------------3-------|


    Q.   E E E E E   E E Q.    E    E   E
|--------0-1-0-----|---3-0-----------------|
|----------3---3-1-|-3---1----[1]-<12>-[1]-|
|-<12>-----2-------|---2-------------------|
|------------------|-2---------------------|
|---3----------3---|-0---------------------|
|------------------|-----------------------|


   Q   Q  E E E E   E E E E   Q    Q     E E E E   Q    Q      E  E E E Q  Q
|------0--3-------|--------------------|--------------------|-----------------|
|---------0-1-3---|---------<12>-------|---------<12>--[1]--|-[3]-------------|
|-[2]---------4-0-|-2-------------[2]--|-2---2-0------------|-----------5--7--|
|---------2---0---|-3---3--------------|---4-------4--------|-------5---------|
|--0--------------|---3---3------------|-5--------------0---|-----5---5-------|
|-----------------|-1------------------|--------------------|--3--------------|


  E E Q.     E   E    E     Q.   E E E E E   E E Q.     E   E    E
|---3-0----<12>-----<12>-|-[3]---0-1-0-----|---3-0----<12>-----<12>-|
|-3-3-1---------[3]------|---------3---3-1-|-3---1---------[3]------|
|---0--------------------|---------2-------|---2--------------------|
|------------------------|-----------------|-2----------------------|
|-3----------------------|--3----------3---|-0----------------------|
|----------------3-------|-----------------|------------------------|


   Q   Q  E E E E   E E E E   Q    Q
|------0--3-------|--------------------|
|-[1]-----0-1-3---|---------<12>-------|
|-------------4-0-|-2-------------[2]--|
|---------2---0---|-3---3--------------|
|--0--------------|---3---3------------|
|-----------------|-1------------------|


  E E E E   Q    Q       E  E E E  E  E E E
|--------------------|-<12>-----------------|
|---------<12>--[1]--|--------1---[3]-------|
|-2---2-0------------|------0---0-------0---|
|---4-------4--------|----------------0---0-|
|-5--------------0---|----------------------|
|--------------------|---3---------3--------|


               Q=100
   W           E E E E E E E E   E E E E E E E E
|------------|---------0-------|---------0-------|
|-[1]--------|-----1-3---3-1---|-----1-3---3-1---|
|------------|---0-----------0-|---0-----------0-|
|------------|-----------------|-----------------|
|--3---------|-3---------------|-3---------------|
|------------|-----------------|-----------------|


  E E E E E E E E   E E E E E E E E   E E E E E E E E
|---------0---3---|---------0---3---|-8-------5---7---|
|-1---1-3---3-1---|-1---1-3---3-1---|-5-----5---5---5-|
|---0-----------0-|---0-----------0-|-5---5-------7---|
|-2---------------|-2---------------|---7-------------|
|-3---------------|-3---------------|-0---------------|
|-------------3---|-------------3---|-----------------|


  E E E E E E E E   E E E E E E E E   E E E E E E E E   E  E  E  E E  E  E  E
|-8-------7---8-7-|-1-----------1---|-3-----------3---|-8---------------------|
|-------5---------|-----------------|---------0-------|-----------------------|
|-----5-----5-----|-------0-2-0-----|-----0-2---2-0---|------------9----------|
|---7-----------7-|-----3-------3---|---0-----------0-|------10-12---12-10----|
|-0---------------|---3-----------3-|-----------------|---10---------------10-|
|-----------------|-1---------------|-3---------------|-8---------------------|


  E E E E S S S S Q    E E E E E E E E   E E E E E E E E   E E E E E E E E
|-----------------3--|---3-0---3---0---|-----0-0-1-0-----|---3-0-0-5-0---0-|
|-1-----1-3-------3--|-3---1-3-5-3-1---|-1-------3---3-1-|-3---1-------3---|
|-----0-----0---0-0--|---0-----------0-|---0---0-2-------|---2-----2-------|
|---2---------0------|-----------------|-----------------|-2---------------|
|-3------------------|-3---------------|-3-----------3---|-0---------------|
|---------3-------3--|-------------3---|-----------------|-----------------|


  E E E E E E E E   E E E E E E E E   E E E E Q  E E   E E E E S S S S S S S S
|-----0---3-------|-1---------------|-2--------------|-3-----------------------|
|-1-----1-0-1-3---|-1-----------0-1-|-3-------0----1-|-3-------1-----1-3-----3-|
|-2-2---------4-0-|-2-----0---2-0---|-2---2-0----2---|-0---0-------2-------0---|
|-2-------2---0---|-----3---3---2---|---2-4---4------|-0-0---0---3-------0-----|
|-0---------------|---3-------------|-5----------0---|-------------3-------2---|
|-----------------|-1---------------|----------------|-----3-----------3-------|


  E E E E E E  E E   E E E E E E E E   E E E E E E E E
|---3-0---0---12-8-|-3---0-0-1-0-----|---3-0-0-5-0-7---|
|-3---1-3---3------|---------3---3-1-|-3---1-----------|
|---0----------0---|---0---0-2-------|---2-----2-----9-|
|------------------|-----------------|-2---------------|
|-3----------------|-3-----------3---|-0-----------7---|
|------------------|-----------------|-----------------|


  E E E E E E E E   E E E E E E E E   E E E E E E E E   E  E  E  E E  E  E  E
|-8---0---3-------|-5-------------5-|-7-----------5-7-|-8---------------------|
|-5-----1-0-1-3---|-------------0---|---------0-3-----|-8---------------------|
|-5-----------4-0-|-------0---2-0-5-|-----0---0-------|-9----------9----------|
|---7-----2---0---|-----3---3---2---|---0---7-------0-|------10-12---12-10----|
|-0---------------|---3-------------|-------------0---|---10---------------10-|
|-----------------|-1---------------|-3---------------|-8---------------------|


  E E E E E E E E   E E E E E E E E   E E E E E E E E   E E E E E E E E
|---------0-------|-------0-5-0---0-|-------0-5-0-----|-----------------|
|-----1-3---3-1---|-----1-------3---|-----1-------1-0-|-----------------|
|---0-----------0-|---2-------------|---2-------------|-------0-2-0-----|
|-----------------|-----------------|-----------------|-----3-------3---|
|-3---------------|-0---------------|-0---------------|---3-----------3-|
|-----------------|-----------------|-----------------|-1---------------|


  E E E E E E E E   E E E E E E E E   W          +W
|-----------------|---------0-------|-0--------|-(0)----*|
|---------0-------|-----1-3---3-1---|-1--------|-(1)----*|
|-----0-2---2-0---|---0-----------0-|-0--------|-(0)----*|
|---0-----------0-|-----------------|----------|--------*|
|-----------------|-3---------------|-3--------|-(3)----*|
|-3---------------|-----------------|----------|--------*|


Duration Legend
---------------
W - whole; H - half; Q - quarter; E - 8th; S - 16th; T - 32nd; X - 64th; a - acciaccatura
+ - note tied to previous; . - note dotted; .. - note double dotted
Uncapitalized letters represent notes that are staccato (1/2 duration)
Irregular groupings are notated above the duration line
Duration letters will always appear directly above the note/fret number it represents the
duration for.  Duration letters with no fret number below them represent rests.  Multi-
bar rests are notated in the form Wxn, where n is the number of bars to rest for.  Low
melody durations appear below the staff

Tablature Legend
----------------
 h   - hammer-on
 p   - pull-off
 b   - bend
 pb  - pre-bend
 r   - bend release (if no number after the r, then release immediately)
 /\  - slide into or out of (from/to "nowhere")
 s   - legato slide
 S   - shift slide
  - natural harmonic
[n]  - artificial harmonic
n(n) - tapped harmonic
 ~   - vibrato
 tr  - trill
 T   - tap
 TP  - trem. picking
 PM  - palm muting
\n/  - tremolo bar dip; n = amount to dip
 \n  - tremolo bar down
 n/  - tremolo bar up
/n\  - tremolo bar inverted dip
 =   - hold bend; also acts as connecting device for hammers/pulls
 <>  - volume swell (louder/softer)
 x   - on rhythm slash represents muted slash
 o   - on rhythm slash represents single note slash

Misc Legend
-----------
 |  - bar
||  - double bar
||o - repeat start
o|| - repeat end
*|  - double bar (ending)
 :  - bar (freetime)
 $  - Segno
 &  - Coda
Tempo markers -  = BPM(8/16=s8/s16), where s8 = swing 8ths, s16 = swing 16ths


***************************************************************************************
* Generated using Power Tab Editor by Brad Larsen - http://powertab.guitarnetwork.org *
***************************************************************************************
Login or Register to remove this ad.

2 comments on Rising Sun

I really like this for some

5

I really like this for some reason, I can't quite put my finger on it. Good job. It will probably take me a while to be able to play the harmonics without struggling.

Thanks. Memorizing the order

Thanks. Memorizing the order of the harmonics is probably the easiest way to approach that section.