Login or Register to remove this ad.

Liberte, the Capital of Art (Night) (Final Fantasy: The 4 Heroes of Light) Guitar Tab

Submitted: Feb 02, 2017 by birdnet

0
Download | Listen
Game: Final Fantasy: The 4 Heroes of Light
Composer(s): Naoshi Mizuta
Style: Arrangement, Fingerstyle
Series: Final Fantasy

AutoScroll: Slow | Medium | Fast
Liberte, Capital of Art (Night)
Final Fantasy: The 4 Heroes of Light
Naoshi Mizuta
birdnet
1/22/17

Track 1
     H        E  E     Q    Q    Q       H.              Q    Q    Q     
E||-----------7--6--|--7----3----0----|---------------|-------0----2----|
B||-----------------|-----------------|--3------------|--3--------------|
G||-----------------|-------4---------|--0------------|--0----4---------|
D||-----------------|--5---------0----|---------------|------------0----|
A||-----------------|-----------------|---------------|-----------------|
E||-----------------|-----------------|---------------|-----------------|


  Q    Q    Q       Q    Q    Q       H.              Q    Q    Q     
--3----5----7----|--8--------------|---------------|-----------------|
-----------------|-----------------|---------------|-----------------|
--0--------------|-------5---------|---------------|-------5---------|
-----------------|--5--------------|--5------------|--5--------------|
-----------------|------------6----|---------------|------------6----|
-----------------|-----------------|---------------|-----------------|


  H        E  E     Q    Q    Q       H.              Q    Q    Q     
-----------7--6--|--7----3----0----|---------------|-------0----2----|
-----------------|-----------------|--3------------|--3--------------|
-----------------|-------4---------|--0------------|--0----4---------|
--5--------------|--5---------0----|---------------|------------0----|
-----------------|-----------------|---------------|-----------------|
-----------------|-----------------|---------------|-----------------|


  Q    Q    Q        Q    Q    Q       Q    Q    Q       Q    Q    Q     
--3----5----7----|--10--------------|-------9---------|--9---------9----|
-----------------|------------------|--7---------7----|-------7---------|
--0--------------|-------------6----|-----------------|------------9----|
-----------------|--------8---------|-----------------|-------9---------|
-----------------|---9--------------|-----------------|-----------------|
-----------------|------------------|-----------------|--7--------------|


  Q    Q    Q       Q    Q    Q       Q    Q    Q       Q    Q    Q     
--7--------------|--7--------------|-------5----7----|--5--------------|
-----------------|------------8----|-----------------|-------8----7----|
------------4----|-------5---------|-----------------|-------5----9----|
-------4---------|--7--------------|-----------------|--7--------------|
--6--------------|-----------------|--7--------------|-----------------|
-----------------|-----------------|-----------------|-----------------|


  Q    Q    Q       Q    Q    Q       Q    Q    Q       Q    Q    Q     
------------5----|--7--------------|-------5----7----|--5--------------|
--7----8---------|------------8----|-----------------|------------8----|
-----------------|-------5---------|-----------------|-------5---------|
-----------------|--7--------------|-----------------|--7--------------|
--5--------------|-----------------|--7--------------|-----------------|
-----------------|-----------------|-----------------|-----------------|


            |--3--|                                                        
  Q    Q    E  E  E     Q    Q    Q       H        Q       Q    Q    Q     
------------5--4--3--|--2---------2----|--0--------5----|--2---------2----|
--8----7-------------|-----------------|----------------|-----------------|
---------------------|-------4---------|----------------|-------4---------|
---------------------|--5--------------|----------------|--5--------------|
--5------------------|-----------------|--5-------------|-----------------|
---------------------|-----------------|----------------|-----------------|


  Q    Q    Q       Q    Q    Q       H        E  E     Q    Q    Q     
--3----2---------|--0---------2----|--0--------2--0--|------------2----|
------------0----|-----------------|-----------------|--3--------------|
-----------------|-------4---------|-----------------|-------4---------|
-----------------|--5--------------|-----------------|--5--------------|
--5--------------|-----------------|--5--------------|-----------------|
-----------------|-----------------|-----------------|-----------------|


  Q    E  E  E  E      Q    Q     Q        Q    Q     Q     
-------------6--7--|--10---------------|--------8----10----|
-------7--8--------|-------------11----|-------------------|
-------------------|--------8----------|-------------------|
-------------------|--10---------------|-------------------|
--5----------------|-------------------|--10---------------|
-------------------|-------------------|-------------------|


   Q     Q     Q        Q     Q    Q        Q    Q     Q     
---8----------------|--------------8----|--10---------------|
--------11----10----|--10----11---------|-------------11----|
---------8----12----|-------------------|--------8----------|
--10----------------|-------------------|--10---------------|
--------------------|---8---------------|-------------------|
--------------------|-------------------|-------------------|


                                                    |--3--|                     
   Q    Q     Q        Q    Q     Q       Q    Q    E  E  E     Q    Q    Q     
--------8----10----|---8---------------|--6----5----8--7--6--|--5--------------|
-------------------|-------------11----|---------------------|------------3----|
-------------------|--------8----------|---------------------|-------4---------|
-------------------|--10---------------|---------------------|--2--------------|
--10---------------|-------------------|--8------------------|-----------------|
-------------------|-------------------|---------------------|-----------------|


  Q    Q    Q       Q    Q    Q       Q    Q    Q       Q    Q    Q     
-------8----6----|--3--------------|-------1----3----|--5--------------|
--5--------------|------------2----|--4--------------|-----------------|
-----------------|-------3---------|-----------------|------------5----|
-----------------|--1--------------|-----------------|-------7---------|
-----------------|-----------------|-----------------|--5--------------|
-----------------|-----------------|-----------------|-----------------|


  H        Q       Q    Q    Q       H         E    E     
----------------|--5--------------|--7--------(7)--(6)--||
--8-------------|-----------------|--7------------------||
--7--------7----|--2--------------|---------------------||
----------------|-------4----0----|---------------------||
----------------|-----------------|--0------------------||
----------------|-----------------|---------------------||




Duration Legend
---------------
W - whole
H - half
Q - quarter
E - 8th
S - 16th
T - 32nd
X - 64th
. - note dotted
|-n-|  - n-tuplets
Login or Register to remove this ad.