Ads

Map 04 - Wormhole (Final Doom) Guitar Tab

Submitted: May 18, 2013 by scarecrowlol

5
Average: 5 (2 votes)
Download | Listen
Game: Final Doom
Composer(s): Jonathan El-Bizri, Josh Martel, L.A. Sieben, Tom Mustaine
Style: Arrangement, Fingerstyle
Series: Doom

This song is also called Death's Bells

AutoScroll: Slow | Medium | Fast
Title: Map 04 - Wormhole "Death's Bells"
SubTitle: TNT Doom - Evilution
Artist: Jonathan El-Bizri, Josh Martel, L.A. Sieben, Tom Mustaine
Tabber: Mitch Jackson
Tempo = 94
T/S = 4/4
Tuning = Drop 'C'

This piece is apparently based off the song "Life of Antarctica" by Vangelis (1983) 

ORIGINAL SONG = http://www.youtube.com/watch?v=aE54daXud_I

         

      E  E  E  E  E  E  E  E       E  E  E  E  E  E  E  E       E  E  E  E  E  E  E  E       E  E  E  E  E  E  E  E     
D ||--5-----1-----0-----1-------|--0-----1-----0-----1-------|--0-----1-----0-----1-------|--0-----1-----0-----1-------|
A ||----------------------------|----------------------------|----------------------------|----------------------------|
F ||o-2--2--2--2--2--2--2--2----|--2--2--2--2--2--2--2--0----|--2--2--2--2--2--2--2--2----|--2--2--2--2--2--2--2--0----|
C ||o-2-------------------------|----------------------------|----------------------------|----------------------------|
G ||--0-------------------------|----------------------------|--0-------------------------|----------------------------|
C ||----------------------------|----------------------------|----------------------------|----------------------------|

                                                          

      E  E  E  E  E  E  E  E       E  E  E  E  E  E  E  E       E  E  E  E  E  E  E  E       E  E  E  E  E  E  E  E     
   |--0-----1-----0-----1-------|--0-----1-----0-----1-------|--0-----1-----0-----1-------|--0-----1-----0-----1-------|
   |----------------------------|----------------------------|----------------------------|----------------------------|
   |--2--2--2--2--2--2--2--2----|--2--2--2--2--2--2--2-------|--2--2--2--2--2--2--2-------|--2--2--2--2--2--2--2-------|
   |--3-------------------------|-----------------------2----|--0--------------------0----|----------------------------|
   |----------------------------|----------------------------|----------------------------|--3--------------------2----|
   |----------------------------|----------------------------|----------------------------|----------------------------|

                                                          

      E  E  E  E  E  E  E  E       E  E  E  E  E  E  E  E       S S S S S S S S S S S S S S S S      S S S S S S S S S S S S S S S S    
   |--0-----1-----0-----1-------|--0-----1-----0-------------|--5-------5-------5-------5---------|--5-------5-------5-------5---------|
   |----------------------------|--------------------6-------|----6-------6-------6-------6-------|----6-------6-------6-------6-------|
   |--2--2--2--2--2--2--2--2----|--2--2--2--2--2--2--5-------|------9-------9-------9-------9-----|------9-------9-------9-------9-----|
   |--2-------------------------|--------------------7--7----|--------7-------7-------7-------7---|--------7-------7-------7-------7---|
   |--0-------------------------|--------------3-------------|--0---------------------------------|------------------------------------|
   |----------------------------|----------------------------|------------------------------------|------------------------------------|

                                                     

      S S S S S S S S S S S S S S S S      S S S S S S S S S S S S S S S S      S S S S S S S S S S S S S S S S    
   |--5-------5-------5-------5---------|--5-------5-------5-------5---------|--5-------5-------5-------5---------|
   |----6-------6-------6-------6-------|----6-------6-------6-------6-------|----6-------6-------6-------6-------|
   |------9-------9-------9-------9-----|------9-------9-------9-------9-----|------7-------7-------7-------7-----|
   |--5-----7-------7-------7-------7---|--------7-------7-------7-------7---|--------7-------7-------7-------7---|
   |------------------------------------|------------------------------------|------------------------------------|
   |------------------------------------|------------------------------------|--0---------------------------------|

                                                     

      S S S S S S S S S S S S S S S S      S S S S S S S S S S S S S S S S      S S S S S S S S S S S S S S S S    
   |--5-------5-------5-------5---------|--5-------5-------5-------5---------|--5-------5-------5-------5---------|
   |----6-------6-------6-------6-------|----6-------6-------6-------6-------|----6-------6-------6-------6-------|
   |------5-------5-------5-------------|------9-------9-------9-------9-----|------9-------9-------9-------9-----|
   |--------7-------7-------7-----9h7---|--------7-------7-------7-------7---|--------7-------7-------7-------7---|
   |--8---------------------------------|--0---------------------------------|------------------------------------|
   |------------------------------------|------------------------------------|------------------------------------|

                                                     

      S S S S S S S S S S S S S S S S      S S S S S S S S S S S S S S S S      S S S S S S S S S S S S S S S S    
   |--5-------5-------5-------5---------|--5-------5-------5-------5---------|--5-------5-------5-------5---------|
   |----6-------6-------6-------6-------|----6-------6-------6-------6-------|----6-------6-------6-------6-------|
   |------9-------9-------9-------9-----|------9-------9-------9-------9-----|------5-------5-------5-------5-----|
   |--------7-------7-------7-------7---|--------7-------7-------7-------7---|--------7-------7-------7-------7---|
   |--0---------------------------------|------------------------------------|--8---------------------------------|
   |------------------------------------|------------------------------------|------------------------------------|

                                                     

      S S S S S S S S S S S S S S S S      S S S S S S S S S S S S S S S S      S S S S S S S S S S S S S S S S    
   |--5-------5-------5-------5---------|--5-------5-------5-------5---------|--5-------5-------5-------5---------|
   |----6-------6-------6-------6-------|----6-------6-------6-------6-------|----6-------6-------6-------6-------|
   |------5-------5-------5-------5-----|------7-------7-------7-------7-----|------------------------------------|
   |--------7-------7-------7-------7---|--------7-------7-------7-------7---|------7-------7-------7-------7-----|
   |------------------------------------|--5---------------------------------|--8-----8-------8-------8-------8---|
   |------------------------------------|------------------------------------|------------------------------------|


                                                     
      S S S S S S S S S S S S S S S S      S S S S S S S S S S S S S S S S      E  E  E  E  E  E  E  E       E  E  E  E  E  E  E  E     
   |--5-------5-------5-------5---------|--5-------5-------5-------5---------|--3--5--5--5--3--5--5--5----|--3--5--5--5--3--5--5--5----|
   |----6-------6-------6-------6-------|----6-------6-------6-------6-------|----------------------------|----------------------------|
   |------9-------9-------9-------9-----|------9-------9-------9-------------|--2--2--2--2--2--2--2--2----|--2--2--2--2--2--2--2--2----|
   |--------7-------7-------7-------7---|--------7-------7-------7-----------|--2--2--2--2--2--2--2--2----|--2--2--2--2--2--2--2--2----|
   |--0---------------------------------|------------------------------------|--0--0--0--0--0--0--0--0----|--0--0--0--0--0--0--0--0----|
   |------------------------------------|------------------------------7\0---|----------------------------|----------------------------|

                                                     

      E  E  E  E  E  E  E  E       E  E  E  E  E  E  E  E       E  E  E  E  E  E  E  E       E  E  E  E  E  E  E  E     
   |--3--5--5--5--3--5--5--5----|--3--5--5--5--3--5--5--5----|--3--5--5--5--3--5--5--5----|--3--5--5--5--3--5--5--5----|
   |----------------------------|----------------------------|----------------------------|----------------------------|
   |----------------------------|----------------------------|----------------------------|--5--5--5--5--5--5--4--4----|
   |--3--3--3--3--3--3--3--3----|--3--3--3--3--3--3--3--3----|--0--0--0--0--0--0--0--0----|--5--5--5--5--5--5--4--4----|
   |--3--3--3--3--3--3--3--3----|--3--3--3--3--3--3--3--3----|--0--0--0--0--0--0--0--0----|--3--3--3--3--3--3--2--2----|
   |--3--3--3--3--3--3--3--3----|--3--3--3--3--3--3--3--3----|--0--0--0--0--0--0--0--0----|----------------------------|

                                                          

      E  E  E  E  E  E  E  E       E  E  E  E  E  E  E  E       E  E  E  E  E  E  E  E       E  E  E  E  E  E  E  E     
   |--3--5--5--5--3--5--5--5----|--3--5--5--5--3--5--5--5----|--3--5--5--5--3--5--5--5----|--3--5--5--5--3--5--5--5----|
   |----------------------------|----------------------------|----------------------------|----------------------------|
   |--2--2--2--2--2--2--2--2----|--2--2--2--2--2--2--2--2----|--2--2--2--2--2--2--2--2----|--2--2--2--2--2--2--2--2----|
   |--2--2--2--2--2--2--2--2----|--2--2--2--2--2--2--2--2----|--2--2--2--2--2--2--2--2----|--2--2--2--2--2--2--2--2----|
   |--0--0--0--0--0--0--0--0----|--0--0--0--0--0--0--0--0----|--0--0--0--0--0--0--0--0----|--0--0--0--0--0--0--0--0----|
   |----------------------------|----------------------------|----------------------------|----------------------------|

                                                          

      E  E  E  E  E  E  E  E       E  E  E  E  E  E  E  E       E  E  E  E  E  E  E  E       E  E  E  E  E  E  E  E     
   |--3--5--5--5--3--5--5--5----|--3--5--5--5--3--5--5--5----|-----5--5--5-----5--5--5----|--3--5--5--5-----5--5--5----|
   |----------------------------|----------------------------|--8-----------8-------------|--6--6--6--6--8-------------|
   |--5--5--5--5--5--5--5--5----|--5--5--5--5--5--5--5--5----|--7--7--7--7--7--7--7--7----|--5--5--5--5--7--7--7--7----|
   |--5--5--5--5--5--5--5--5----|--5--5--5--5--5--5--5--5----|--7--7--7--7--7--7--7--7----|--3--3--3--3--5--5--5--5----|
   |--3--3--3--3--3--3--3--3----|--3--3--3--3--3--3--3--3----|--5--5--5--5--5--5--5--5----|----------------------------|
   |----------------------------|----------------------------|----------------------------|----------------------------|

                                                          

      E  E  E  E  E  E  E  E       E  E  E  E  E  E  E  E       E  E  E  E  E  E  E  E       E  E  E  E  E  E  E  E     
   |--3--5--5--5--3--5--5--5----|--3--5--5--5--5--5--5--5----|----------------------------|----------------------------|
   |----------------------------|----------------------------|--3-----4-----3-----4-------|--3-----4-----3-----4-------|
   |--2--2--2--2--2--2--2--2----|--2--2--2--2--2--2--2--2----|--4-----5-----4-----5-------|--4-----5-----4-----5-------|
   |--2--2--2--2--2--2--2--2----|--2--2--2--2--2--2--2--2----|--5--5--5--5--5--5--5--5----|--5--5--5--5--5--5--5--5----|
   |--0--0--0--0--0--0--0--0----|--0--0--0--0--0--0--0--0----|----------------------------|----------------------------|
   |----------------------------|----------------------------|--5-------------------------|----------------------------|

                                                          

      E  E  E  E  E  E  E  E       E  E  E  E  E  E  E  E       E  E  E  E  E  E  E  E       E  E  E  E  E  E  E  E     
   |----------------------------|----------------------------|----------------------------|----------------------------|
   |--3-----4-----3-----4-------|--3-----4-----3-----4-------|--3-----4-----3-----4-------|--3-----4-----3-----4-------|
   |--4-----5-----4-----5-------|--4-----5-----4-----5-------|--4-----5-----4-----5-------|--4-----5-----4-----5-------|
   |--5--5--5--5--5--5--5--5----|--5--5--5--5--5--5--5--5----|--5--5--5--5--5--5--5--5----|--5--5--5--5--5--5--5--5----|
   |--6-------------------------|----------------------------|--5-------------------------|--3-------------------------|
   |----------------------------|----------------------------|----------------------------|----------------------------|

                                                          

      E  E  E  E  E  E  E  E       E  E  E  E  E  E  E  E       E  E  E  E  E  E  E  E       E  E  E  E  E  E  E  E     
   |----------------------------|----------------------------|----------------------------|----------------------------|
   |--3-----4-----3-----4-------|--3-----4-----3-----4-------|--3-----4-----3-----4-------|--3-----4-----3-----4-------|
   |--4-----5-----4-----5-------|--4-----5-----4-----5-------|--4--4--4--4--4--4--4--4----|--4--4--4--4--4--4--4--4----|
   |--5--5--5--5--5--5--5--5----|--5--5--5--5--5--5--5--5----|----------------------------|----------------------------|
   |----------------------------|----------------------------|----------------------------|----------------------------|
   |--5-------------------------|----------------------------|--5-------------------------|----------------------------|

                                                          

      E  E  E  E  E  E  E  E       E  E  E  E  E  E  E  E       E  E  E  E  E  E  E  E       E  E  E  E  E  E  E  E     
   |----------------------------|----------------------------|----------------------------|----------------------------|
   |--3-----4-----3-----4-------|--3-----4-----3-----4-------|--3-----4-----3-----4-------|--3-----4-----3-----4-------|
   |--4--4--4--4--4--4--4--4----|--4--4--4--4--4--4--4--4----|--4--4--4--4--4--4--4--4----|--4--4--4--4--4--4--4--4----|
   |----------------------------|----------------------------|--0-------------------------|--3-------------------------|
   |--3-------------------------|----------------------------|----------------------------|----------------------------|
   |----------------------------|----------------------------|----------------------------|--------------3-------------|

                                                          
                                                                ^
      E  E  E  E  E  E  E  E       E  E  E  E  E  E  E  E       W                           
   |----------------------------|--------4-----7-----4------||--5-------------------------||
   |--3-----4-----3-----4-------|--5------------------------||----------------------------||
   |--4--4--4--4--4--4--4--4----|--6--6--6--6--6--6--6--6--o||--2-------------------------||
   |----------------------------|--------------------------o||--2-------------------------||
   |----------------------------|--0------------------------||--0-------------------------||
   |--5-------------------------|---------------------------||----------------------------||

Login or Register to remove this ad.