Ads

Home (Fez) Guitar Tab

Submitted: May 14, 2016 by Dao Jarlen (Last updated: May 14, 2016)

0
Download | Listen
Game: Fez
Composer(s): Disasterpeace
Style: Arrangement, Fingerstyle, Natural harmonics, Percussion

Click here for a video example.

AutoScroll: Slow | Medium | Fast
Home
by Rich Vreeland AKA Disasterpeace
Arranged for solo guitar by Dao Jarlen

Wow, this tab is long overdue. It's about time there was something from Disasterpeace on this site.
Sorry for the low quality on the recording.
The percussive slaps should come on every beat 3 if you want to play them. Enjoy!

Tempo = 120
Standard tuning
L - tied note
() - natural harmonic


E ||---------------------------|----------------------------|
B ||---------------------------|----------------------------|
G ||o--------------------------|----------------------------|
D ||o---------7-----------7----|-----------7-----------7----|
A ||-------7-----------7-------|--------7-----------7-------|
E ||-7--9--------7--9----------|--7--9--------7--9----------|


----------------------------|----------------------------|
----------------------------|----------------------------|
----------------------------|----------------------------|
-----------6-----------6----|-----------6-----------6----|
-----4--7--------4--7-------|-----4--7--------4--7-------|
--7-----------7-------------|--7-----------7-------------|


----------------------------|----------------------------|
----------------------------|----------------------------|
----------------------------|----------------------------|
-----------2-----------2----|-----------2-----------2----|
--------2-----------2-------|--------2-----------2-------|
--4--5--------4--5----------|--4--5--------4--5----------|


----------------------------|---------------------------|||
----------------------------|---------------------------|||
----------------------------|--------------------------o|||
-----------0-----------0----|-----------0-----------0--o|||
--------0-----------0-------|--------0-----------0------|||
--2--4--------2--4----------|--2--4--------2--4---------|||


----------------5--4--0L---|--0----|-----------------5--4--0L---|--0----|
---------------------------|-------|----------------------------|-------|
o--------------------------|-------|----------------------------|-------|
o--------------------------|-------|----------------------------|-------|
-0-------------------------|--0----|--4-------------------------|--4----|
---------------------------|-------|----------------------------|-------|


-------|--0-------|----------------|----------------|
-------|--0--0----|--3--2--0-------|----------------|
-------|--1-------|-----------2----|--1-------------|
-------|--2-------|----------------|--0--4--2-------|
-------|----------|----------------|-----------5----|
--0----|--0-------|--0-------------|----------------|


-----------------5--4--0----|-------|-----------------5--4--0L---|--0----|
----------------------------|-------|----------------------------|-------|
--2-------------------------|-------|----------------------------|-------|
--2-------------------------|-------|----------------------------|-------|
--4-------------------------|--0----|--4-------------------------|--4----|
--5-------------------------|-------|----------------------------|-------|


-------|--0--4----|--2----|----|-------|--------------------0-------|-------|
-------|--0--5----|--3----|----|--2----|-----------------0----------|--0----|
-------|--1--4----|--2----|----|--2----|--------------1--------1----|-------|
-------|--2-------|-------|----|--4----|----------------------------|-------|
-------|----------|-------|----|-------|----------------------------|-------|
--0----|--0-------|--0----|----|--2----|--2-------------------------|--0----|


--------------------4-------|--0----|----------------------------|-------|
-----------------2----------|-------|--------------3--2--0-------|--3----|
--------------4--------4----|-------|-----------------------2----|--1----|
----------------------------|-------|----------------------------|-------|
----------------------------|--0----|--0-------------------------|--0----|
--0-------------------------|-------|----------------------------|-------|


-------|--------0--2--------0-------|--0--------------------0----|
--2----|--0--2--------0--2-----2----|----------------------------|
--2----|----------------------------|----------------------------|
-------|----------------------------|----------------------------|
--4----|----------------------------|----------------------------|
-------|--2-------------------------|--2-------------------------|


--4--------------------0----|--7--------------------0----|--9----|
----------------------------|----------------------------|-------|
----------------------------|----------------------------|-------|
----------------------------|----------------------------|-------|
----------------------------|----------------------------|--0----|
--0-------------------------|--0-------------------------|-------|


----------------------------|-------|-------|----------------------------|
-----------------2--3--5----|--3----|--1----|----------------------------|
----------------------------|--0----|--0----|-----------2-----------2----|
----------------------------|--2----|--2----|--------2-----------2-------|
--0-------------------------|--3----|--3----|--3--5--------3--5----------|
----------------------------|-------|-------|----------------------------|


---------------------------||--------------10-9----------|-------|-------|
---------------------------||--------------------12-10---|--9----|--7----|
-----------2-----------2--o||----------------------------|--7----|--6----|
--------2-----------2-----o||----------------------------|-------|-------|
--3--5--------3--5---------||--0-------------------------|--0----|-------|
---------------------------||----------------------------|-------|--9----|


--------0--2--------0-------|--0--------------------0----|
--0--2--------0--2-----2----|----------------------------|
----------------------------|----------------------------|
----------------------------|----------------------------|
----------------------------|----------------------------|
--2-------------------------|--2-------------------------|


--4--------------------0----|--7--------------------0----|--9----|
----------------------------|----------------------------|-------|
----------------------------|----------------------------|-------|
----------------------------|----------------------------|-------|
----------------------------|----------------------------|--0----|
--0-------------------------|--0-------------------------|-------|


-----------------9--10-12---|--10---|-------|----------------------------|
----------------------------|--8----|--1----|----------------------------|
----------------------------|--9----|--0----|-----------2-----------2----|
----------------------------|-------|--2----|--------2-----------2-------|
--0-------------------------|-------|--3----|--3--5--------3--5----------|
----------------------------|--8----|-------|----------------------------|


----------------------------|----(5)---|-------||
----------------------------|----------|-------||
-----------2-----------2----|----------|-------||
--------2-----------2-------|----------|-------||
--3--5--------3--5----------|--0-------|-(5)---||
----------------------------|----------|-------||
Login or Register to remove this ad.