Ads

Oath Sign (Fate/zero) Guitar Tab

Submitted: Aug 18, 2012 by cyx77 (Last updated: May 16, 2014)

4.916665
Average: 4.9 (12 votes)
Download | Listen
Game: Fate/zero
Composer(s): Aoi Eir
Style: Arrangement, Fingerstyle

Click here for a video example.

AutoScroll: Slow | Medium | Fast
                              Oath Sign                             
		    Artist : Risa Oribe (LiSA)
		  Arranged By: Gianfranco Addante

Note: Tied notes were not included in the ASCII version of this arrangement to make the tablature easier to read.
Please see the downloadable Guitar Pro 5 file to view this arrangement with the tied notes included.
The Guitar Pro 5 file is also easier to read.


     Q    Q    Q    Q       Q    Q    H           Q    Q    Q    Q     
E||-----------------3----|--3----2----0--------|-------0--------------|
B||--0----0----0---------|--1----1----1--------|--3---------3---------|
G||--0----0----0---------|--0----0----0--------|--2---------2----2----|
D||----------------------|---------------------|--0---------0---------|
A||----------------------|--3---------3--------|----------------------|
E||--0----0----0---------|---------------------|----------------------|


  Q    Q    Q    Q       Q    Q    Q    Q       E  E  E  E  E  E  E  E   
----------------------|----------------------|--------------0-----------|
--0----1---------0----|-------0----0---------|--------------------------|
--0---------2---------|--0---------0----0----|--2-----------------------|
------------0---------|--2---------2---------|--2-----2-----------2-----|
----------------------|----------------------|--3--3-----3-----3-----3--|
--3---------2---------|--0---------0---------|--------------------------|


  H        E  E  E  E       W                   Q    E  Q    Q    E   
--------------------2--|--/10----------------|-------3--2------------|
--3--------------3-----|---------------------|--3----3--3----3----3--|
--2-----------2--------|---------------------|--0--------------------|
--0--------------------|---------------------|-----------------------|
-----------------------|---------------------|-----------------------|
-----------------------|---------------------|--0------------0----0--|


  Q    E  Q    Q    E     Q    E  E  Q    E  E     E  E  E  Q.     Q     
-------3--2------------|-------3--2-------2-----|-----------------------|
-------3--3----3----3--|---------------------3--|-----0--1--3-----------|
-----------------------|------------------------|-----------------------|
--------------------0--|---------------------0--|-----------------------|
-----------------------|------------------------|-----------------------|
---------------0-------|------------------------|-----------------------|


  Q    E  Q    Q    E     Q    E  Q    Q    E     Q    E  E  E  E  E  E   
-------3--2------------|-------3--2----3----5--|-------------------------|
--3----3--3----3----3--|-------3--3---------3--|----------3--3--1--0--0--|
-----------------------|--------------------2--|-------------------------|
-----------------------|--------------------0--|-------------------------|
-----------------------|-----------------------|-------------------------|
--0------------0----0--|-----------------------|-------------------------|


  E  E  E  Q    Q    E     Q    E  Q    Q    E     Q    E  Q    Q    E   
------------------------|-------3--2------------|-------3--2------------|
-----5--5------------3--|-------3--3----3----3--|-------3--3----3----3--|
---------------------0--|--------------------0--|--------------------0--|
------------------------|-----------------------|-----------------------|
------------------------|--------------------3--|---------------3-------|
---------------------0--|---------------0-------|--------------------3--|


  Q    E  Q    Q    E     E  E  E  Q.     E  E     Q    E  Q    Q    E   
-------3--2----5-------|------------------------|-------3--2------------|
-------3--3---------3--|-----0--1--3---------3--|-------3--3----3----3--|
--------------------2--|---------------------0--|--------------------0--|
--------------------0--|------------------------|-----------------------|
-----------------------|------------------------|--------------------3--|
-----------------------|---------------------0--|---------------0-------|


  Q    E  Q    Q    E     Q.     S S E  E  E  E     E  E  E  H        E   
-------3--2----3----5--|----------------------8--|-----7--7--5-----------|
-------3--3----3----3--|---------3-3-3--------5--|-----5--5--3-----------|
--------------------4--|----------------5--4--5--|-----5--5--4-----------|
-----------------------|-------------------------|-----------------------|
--------------------2--|-------------------------|-----------2-----------|
-----------------------|----------------------5--|-----------------------|


  Q    Q    Q    E  E     E  Q    E  Q    Q       Q    Q    Q    E  E   
-------2----3-------2--|-----3-------2----3----|-------2----3-------2--|
-------1----1----3--1--|-----1----3--1----1----|-------0----0----3--0--|
-----------------------|-----------------------|-----------------------|
-----------------------|-----------------------|-----------------------|
--3-----------------3--|-------------3---------|-----------------------|
-----------------------|-----------------------|--0-----------------0--|


  E  Q    E  Q    Q       E  E  E  Q    Q    E      E  E  E  Q.     E  E   
-----3-------5----3----|-----------7---------2--|------3--5---------------|
-----0----3--0----0----|-----5----------5----3--|------------3---------3--|
-----------------------|--------7------------4--|------------4------------|
-----------------------|------------------------|-------------------------|
-----------------------|---------------------2--|------------2------------|
-------------0---------|--5---------------------|-------------------------|


   Q    E  Q    E  E  E     H.           E  E     E  E  E  E  E  Q     S S  
--10----8--7----5-----5--|------------------7--|--------------7------------|
---8-------5-------8--7--|---------------8--7--|-----------7-------------9-|
----------------------7--|------------------8--|--------8-------------11---|
-------------------------|---------------------|-----9---------------------|
----------------------5--|---------------------|---------------------------|
---8-------5-------------|------------------7--|---------------------------|


   E   E   E   E  E   Q    S S    E  E  E  E  E  Q    E   
----------------------9--------|--5-----5--7-----9-------|
--10---9--10--12-----10----7-9-|--7--9-----7-----7-------|
--11--11--11--11-----11--------|-------------------------|
-------------------------------|-------------------------|
---9-----------9------9--------|--5--------5-----5-------|
-------------------------------|-------------------------|


  E  E  E  E  E  E  E  E     E  E   Q    Q    Q       Q     E  Q    E  E  E   
--9--7--7--7-----5--------|--------10----9----7----|--------9--7----5--------|
--------------------9--5--|------------------------|--7----------------9--6--|
-----------------------9--|------------------------|--7-------------------6--|
-----------------------7--|------------------------|-------------------------|
--7-----------------------|------------------------|--5-------------------4--|
--0-----------0--------5--|---------5----5----0----|-----------0-------------|


  E  E   E  H        E     E  E  E   E  E   Q    E     H.           E   S S  
-----4---7--5-----------|--9--7--9---7--9--10----7--|-----------------------|
------------2-----------|--7------------7--------6--|---------------------9-|
------------2-----------|--7------------7--------6--|------------------11---|
------------------------|---------------------------|-----------------------|
------------------------|------------------------4--|-----------------------|
------------2-----------|--7------------7-----------|-----------------------|


   E   E   E   E  E   Q    S S    E  E  E  E  E  Q    E   
----------------------9--------|--5-----5--7-----9-------|
--10---9--10--12-----10----7-9-|--7--9-----7-----7-------|
--11--11--11--11-----11--------|-------------------------|
-------------------------------|-------------------------|
---9-----------9------9--------|--5--------5-----5-------|
-------------------------------|-------------------------|


  E  E  E  E  E  E  E  E     E  E   Q    Q    Q       Q     E  Q    E  E  E   
--9--7--7--7-----5--------|--------10----9----7----|--------9--7----5--------|
--------------------9--5--|------------------------|--7----------------9--6--|
-----------------------9--|------------------------|--7-------------------6--|
-----------------------7--|------------------------|-------------------------|
--7-----------------------|------------------------|--5-------------------4--|
--0-----------0--------5--|---------5----5----0----|-----------0-------------|


  E  E   E   Q     E   E  E     H.           E  E     Q    Q    Q    Q     
-----4---7----------------9--|---------------------|-------7----4---------|
------------10----10--12--7--|------------------6--|-----------------5----|
------------11------------7--|------------------6--|----------------------|
------------11---------------|---------------------|----------------------|
-------------9---------------|------------------4--|----------------------|
--------------------------7--|---------------------|----------------------|


  W                   W                   E  E  E  E  E  Q.      
--4----------------|--2----------------|--2--4--5--4-----0------|
--2----------------|--2----------------|--3---------------------|
--2----------------|--2----------------|--2--------1-----1------|
-------------------|-------------------|--0---------------------|
-------------------|-------------------|------------------------|
--2----------------|--2----------------|-----------0------------|


  E   E   E  E  E  Q.        W                   W                  
--9---7------7-----4------|--2----------------|-------------------||
--7------10--5------------|-------------------|-------------------||
--7----------6------------|-------------------|-------------------||
--------------------------|-------------------|-------------------||
-------------4------------|--2----------------|-------------------||
--7-----------------------|--3----------------|-------------------||


Duration Legend
---------------
W - whoLe
H - haLf
Q - quarter
E - 8th
S - 16th
T - 32nd
X - 64th
. - note dotted
|-n-|  - n-tuplets


Tablature Legend
----------------
L - tied note
x - dead note
g - grace note
(n) - ghost note
> - accentuded note
NH - natural harmonic
AH - artificial harmonic
TH - tapped harmonic
SH - semi harmonic
PH - pitch harmonic
h - hammer on
p - pull off
b - bend
br - bendRelease
pb - preBend
pbr - preBendRelease
brb - bendReleaseBend
\n/ - tremolo bar dip
\n - tremolo bar dive
-/n - tremolo bar Release up
/n\ - tremolo bar inverted dip
/n - tremolo bar return
-\n - tremolo bar Re-ease down
S - shift slide
s - legato s-ide
/ -  slide into from be-ow or out of upwards
\ -  slide into from above or out of downwards
~ - vibrato
W - wide vibrato
tr - trill
TP - tremolo picking
T - tapping
S - slap
P - pop
< - fade in
^ - brush up
v - brush down
Login or Register to remove this ad.

9 comments on Oath Sign

My Lord! I'm weeping tears of

5

My Lord! I'm weeping tears of joy. T_T
I greatly appreciate this tab.
Thank you very much.

I'm very happy

Thank you for you comment. When I see people appreciate what I do, it makes doing it for free completely worth it.

Rider Approves!

5

Great tabbing dude!! I can't actually believe it can be tabbed in guitar. This is just awesome!! Thank you very much for your effort on this :)

Well

If Rider approves, I must be doing something right. :)

Cooooooooool!

5

Coooooooool! This arrange is the best coooooooooool!

Awesome

I'm so thankful, Thanks again for this amazing tab!

Glad you liked it :)

Glad you liked it :)

Nice work

5

Just wondering cos I went to your YouTube channel do you have a second version of this tab with more ornamentation or is that just something you improvise while playing?

pretty much improvised. I

pretty much improvised. I simplify things too sometimes when I feel what I wrote is too blocky.