Ads

ring your bell (Fate/stay night: Unlimited Blade Works) Guitar Tab

Submitted: Jan 21, 2017 by MechaKrauser

5
Average: 5 (3 votes)
Download | Listen
Game: Fate/stay night: Unlimited Blade Works
Composer(s): Yuki Kajiura, Hideyuki Fukasawa
Style: Arrangement, Fingerstyle

AutoScroll: Slow | Medium | Fast
ring your bell
from Fate/stay night [Unlimited Blade Works]
performed by Kalafina
words and music by Yuki Kajiura
tab by MechaKrauser

Standard tuning, capo on 4
4/4 time, 83bpm


  [Intro]

     ^                ^                           ^                        
     E  E  E  E  Q    Q       W                   E.  S E.  S E.  S E.  S  
E||--3----------------6----|--L----------------|--8-----------------------|
B||--------------8----6----|--L----------------|--------------------------|
G||--5-----------7----7----|--L----------------|--5-----------------------|
D||--6--L--------8----8----|--L----------------|--5-----------------------|
A||-----3--6--5------------|-------------------|--3---3-3---3-3---3-3---3-|
E||--4-----------6---------|-------------------|--------------------------|


 [Verse 1]

  ^     ^      ^     ^        ^     ^      ^     ^        ^     ^      ^           ^  
  E.  S E  S S E.  S E.  S    E.  S E  S S E.  S E  E     E.  S E  S S E  S S S E  S  
---------------------------|---------------1---0-------|-----------------------------|
--1---1-1----1-1---3-3-----|--3---3-3----3-------1-----|--1---1-1----1-0--1-0--------|
---------------------------|---------------------------|--2-----2------0----0---0--2-|
--2-----2------2-----3-----|--0-----0------3---2-0-----|------------------------0--3-|
--3-----3------3-----3-----|--3-----3------3-----3--2--|--0-----0--------------------|
---------------------------|---------------------------|---------------3------3------|


             ^                         ^                             ^     
  Q    E  E  E.  S E  E     Q    E  E  E.  S E  E     Q    Q    Q    Q     
-------------------------|-------------------------|----------------------|
-------------1---1----3--|--3----------1---1----3--|--3---------1----3----|
----------2--2---2----5--|--5-------2--2---2----5--|--5---------2----5----|
----------3--------3-----|--0----0--3--0-----0-----|-----------------5----|
-------------------------|-------------------------|----------------------|
--1----1-----1-----------|-------------------------|--3----3----3---------|


                                                [Pre-Chorus]

  ^                                                                         
  Q    E  E  E.  S Q       H        E  E  E  E     E.  S E  E  E.  S E  E   
--1-------0--0----------|-----------------0--3--|--5---0-------2---0----2--|
--1-------1--1----------|-----------1--3--1--0--|--------------0--------0--|
------------------------|--------------4--------|--2---2----5------2-------|
------------------------|-----------------------|--------------0-----0-----|
--3----3-----3---3-3----|--3--------3-----3-----|--0-----0-----------------|
------------------------|-----------------------|--------------------------|


                                                      ^                        
  Q    Q    E  E  E  E     E.  S E  E  E.  S E  E     E.  S E  E  E.  S E.  S  
--3------------------3--|--5---0-------2---0----2--|--3---3----3------6-------|
---------------3--5--0--|--------------0--------0--|--4---4----4--6-----------|
--5---------5--4--5-----|--2---2----5------2-------|--------------7---7-------|
------------------------|--------------0-----0-----|--------------------------|
------------------3--2--|--0-----0-----------------|--6-----6-----------------|
--3----3----3-----------|--------------------------|--------------6-----6-----|


                             ^                        ^                   ^   
  E.  S E  E  E.  S E.  S    E.  S E.  S Q    Q       E.  S E.  S Q    E  E   
------------------3-------|------------------------|--3---2-2-------------2--|
--4---4----4--3-----------|--1---3-3---------------|------3-3-------------4--|
--5---5----5--3---3-------|--0---2-2---------------|--0----------------------|
--------------------------|------------------------|--0---4-4----------------|
--3-----3-----------------|--0-----0---0-0----0----|------------5-5----5-----|
--------------3-----3-----|------------------------|-------------------------|


 [Chorus]

           ^           ^              ^                              ^             
  E.  S E  E  E.  S E  E     E.  S E  E  E  E  E  E     E  S S E  E  E  S S E  E   
--4---4----2--4---4----5--|--2---2----2--2--5--4--2--|--0--0-0----0-----0-0----0--|
--5---5----4--5---5----4--|--2---2----2--2-----------|--2----2----2--4------------|
--------------------------|--------------------------|---------------4----4----4--|
--------2-----------2-----|--1-----1-----------------|----------------------------|
--------------------------|--------------------------|--4------4-----2------2-----|
--0-----------0-----------|--------------4-----4-----|----------------------------|


  ^            ^                          ^                           ^           
  E  S S E  E  E  E  E  E     E.  S E  E  E.  S E  E     E  S S E  E  Q    E  E   
--3--3-3----3--3--2--3--7--|--7--------3--8---7-------|--5--5-5----3--2-------2--|
--5----5----5--3--1--3-----|--0-----3-----5--------8--|--5--5-5----5--4-------3--|
------------------------0--|-----------5--7---7----7--|--------------------------|
---------------0-----0-----|--------------5-----5-----|--------------------------|
--0------0-----------------|--------------------------|---------------2----2-----|
---------------------------|--3-----3-----------------|--2------2----------------|


  ^                          ^                          ^           ^            
  E.  S E  E  E.  S E.  S    E.  S E  E  E.  S E.  S    E.  S E.  S E.  S E.  S  
--3---3----3--2---2-------|--0---0----0--------------|------------------------3-|
--5---5----5--3---3-------|--1---1----1--3---3-------|--1---3-3-----------------|
--------------------------|--------------4---4-------|--------2-----0---2-2-----|
--2-----2-----0-----0-----|--------------------------|--------------------0-----|
--------------------------|--3-----3-----------------|--0-----0---0-0-----0-----|
--------------------------|--------------3-----3-----|--------------------------|


        ^                  ^                      ^          ^           
  E.  S E.  S Q.     E     Q.     E  Q.     E     Q    E  E  Q    E  E   
--3---5-5---------------|--7------3--3---------|--6-------6--5-------3--|
--1---3-3---------------|--0---------0---------|------------------------|
------------------------|------------0---------|--8----------2-------0--|
--0-----0---0-0---------|--0-------------------|--8----------3----3-----|
------------------------|----------------------|--6---------------------|
------------------------|--3-------------------|------------------------|


  ^           ^     ^        ^     ^                      ^           ^            
  E.  S E.  S E.  S E.  S    E.  S E.  S E  S S E   E     E.  S E.  S E.  S E.  S  
--3-----------------------|----------------------------|--------------------------|
--------------1-----------|--0--------------0---1h--3--|--1-----------3-----------|
--0-----------0-----2-----|--0-----0-------------------|--0-----------2-----------|
--0-----------------5-----|----------------------------|--------------------------|
--------------------------|----------------------------|--3---3-3---3-3---3-3---3-|
--3---3-3---3-3---3-3---3-|--3---3-3---3-3----3-3------|--------------------------|


                          [Verse 2]

  ^           ^              ^     ^      ^     ^        ^     ^      ^     ^      
  E.  S E.  S E.  S E.  S    E.  S E  S S E.  S E.  S    E.  S E  S S E.  S E  E   
--1-----------0-----------|---------------------------|---------------1---0-------|
--3-----------1-----------|--1---1-1----1-1---3-3-----|--0---0-1----3-------1-----|
--------------------------|---------------------------|---------------2---0-------|
--------------------------|--2-----2------2-----3-----|--0-----0------------2-----|
--3---3-3---3-3---3-3---3-|--3-----3------3-----3-----|--3-----3------3-----3--2--|
--------------------------|---------------------------|---------------------------|


  ^     ^      ^           ^               ^                         ^            
  E.  S E  S S E  S S S E  S    Q    E  E  E.  S E  E     Q    E  E  E.  S E  E   
-----------------------------|-------------------------|-------------------------|
--1---1-1----1-0--1-0--------|-------------1---1----3--|--3----------1---1----3--|
--2-----2------0----0---0--2-|----------2--2---2----5--|--5-------2--2---2----5--|
------------------------0--3-|----------3--------3-----|--0----0--3--0-----0-----|
--0-----0--------------------|-------------------------|-------------------------|
---------------3------3------|--1----1-----1-----------|-------------------------|


                 ^       ^                                              
  Q    Q    Q    Q       Q    E  E  E.  S Q       H        E  E  E  E   
----------------------|--1-------0--0----------|-----------------0--3--|
--3---------1----3----|--1-------1--1----------|-----------1--3--1--0--|
--5---------2----5----|------------------------|--------------4--------|
-----------------5----|------------------------|-----------------------|
----------------------|--3----3-----3---3-3----|--3--------3-----3-----|
--3----3----3---------|------------------------|-----------------------|


 [Pre-Chorus 2]

  ^           ^                                                   ^            
  E.  S E  E  E.  S E  E     Q    Q    E  E  E  E     E.  S E  E  E.  S E  E   
--5-----0-----2---0----2--|--3------------------3--|--5---0-------2---0----2--|
--------------0--------0--|---------------3--5--0--|--------------0--------0--|
--2-----2--5------2-------|--5---------5--4--5-----|--2---2----5------2-------|
--------------0-----0-----|------------------------|--------------0-----0-----|
--0---0-0-----------------|------------------3--2--|--0-----0-----------------|
--------------------------|--3----3----3-----------|--------------------------|


  ^                          ^                          ^                       
  E.  S E  E  E.  S E.  S    E.  S E  E  E.  S E.  S    E.  S E.  S Q    E  E   
--3---3----3------6-------|------------------3-------|-------------------------|
--4---4----4--6-----------|--4---4----4--3-----------|--1---3-3----------1--3--|
--------------7---7-------|--5---5----5--3---3-------|--0---2-2----------0--2--|
--------------------------|--------------------------|-------------------------|
--6-----6-----------------|--3-----3-----------------|--0-----0---0-0----0-----|
--------------6-----6-----|--------------3-----3-----|-------------------------|


                         [Chorus 2]

  ^                   ^                           ^              ^               
  E.  S E.  S Q    E  E     E.  S S S E  E.  S E  E     E.  S E  E  E  E  E  E   
--3---2-2-------------2--|--4---4---4-2--4---4----5--|--2---2----2--2--5--4--2--|
------3-3-------------4--|--5---5-----4--5---5----4--|--2---2----2--2-----------|
--0----------------------|---------------------------|--------------------------|
--0---4-4----------------|--------2------------2-----|--1-----1-----------------|
------------5-5----5-----|---------------------------|--------------------------|
-------------------------|--0------------0-----------|--------------4-----4-----|


                   ^          ^            ^                          ^            
  E  S S E  E  E.  S E  E     E  S S E  E  E  E  E  E     E.  S E  E  E.  S E  E   
--0--0-0----0------0----0--|--3--3-3----3--3--2--3--7--|--7--------3--8---7-------|
--2----2----2--4-----------|--5----5----5--3--1--3-----|--0-----3-----5--------8--|
---------------4---4----4--|------------------------0--|-----------5--7---7----7--|
---------------------------|---------------0-----0-----|--------------5-----5-----|
--4------4-----2-----2-----|--0------0-----------------|--------------------------|
---------------------------|---------------------------|--3-----3-----------------|


               ^             ^                          ^                         
  E  S S E  E  Q    E  E     E.  S E  E  E.  S E.  S    E  S S E  E  E.  S E.  S  
--5--5-5----3--2-------2--|--3---3----3--2---2-------|--0--0-0----0--------------|
--5--5-5----5--4-------3--|--5---5----5--3---3-------|--1----1----1--3---3-------|
--------------------------|--------------------------|---------------4---4-------|
--------------------------|--2-----2-----0-----0-----|---------------------------|
---------------2----2-----|--------------------------|--3------3-----------------|
--2------2----------------|--------------------------|---------------3-----3-----|


                                                  [Interlude]

  ^           ^             ^                        ^           ^            
  E.  S E.  S E.  S Q       E.  S E.  S Q    Q       E.  S E.  S E.  S E.  S  
-------------------------|--3---5-5---------------|--4-----------7-----------|
--1---3-3----------------|--1---3-3---------------|--5-----------9-----------|
--------2-----0---2-2----|------------------------|--4-----------9-----------|
--------------0---0-0----|--0-----0---0-0----0----|--------------------------|
--0-----0---0-0-----0----|------------------------|--------------------------|
-------------------------|------------------------|--0---0-0---0-0---0-0---0-|


  ^                                                                   ^     ^      
  E.  S E.  S E.  S E  S S    E.  S E.  S E.  S E  S S    E.  S E.  S E.  S E.  S  
--2--------------------2---|--5-----9-----7--------4---|--7-----5-----4-----2-----|
--4------------------------|--5-----7-----5--------5---|--5-----4-----2-----0-----|
--4--------------------4---|--6-----8-----4--------4---|--4-----2-----4-----2-----|
---------------------------|---------------------------|--------------2---2-1---1-|
---------------------------|---------------------------|--------------------------|
--0---0-0---0-0---0-0----0-|--0---0-0---0-0---0-0----0-|--0---0-0---0-------------|


  ^                                                    ^                        
  E.  S E.  S E.  S E  E     E.  S E.  S E.  S Q       E.  S E  E  E.  S E.  S  
--------2-----4--------4--|--7-----6-----4-----6----|--7--------2--2-----------|
--5-----2-----5-----------|--4----------------------|--5-----------4-----------|
--4--------------------6--|--------6-----4-----6----|--------------4-----------|
--2-----4-----6-----------|--4---4-4---4-4---4-4----|--------------------------|
--4---4-4---4-4---4-4-----|-------------------------|--2---2-2-----2---2-2---2-|
--------------------------|-------------------------|--------------------------|


                             ^                    ^                              
  E.  S E.  S E.  S E  E     E.  S E  E  E.  S E  E     E.  S E  E  E.  S E  E   
--7-----5-----4-----2--L--|--------------------------|--------------------------|
--4-----2-----0-----------|--------------------------|--------------4--------4--|
--------------------2--1--|--------------------------|--5---5----6--5---6----5--|
--------------------------|--4--------6--6--------6--|--6---6----6------6-------|
--2---2-2---2-0---0-0-----|--------------------------|--------------------------|
--------------------------|--4---4-4-----4---4-4--4--|--4-----4-----4-----4-----|


                             ^                                                   
  E.  S E  E  E.  S E  E     E.  S E  E  E.  S E  E     E.  S E  E  E.  S E  E   
--0--------0------0----0--|--------------------------|--0--------3--3--------3--|
--2-----------4-----------|--2---2----2--2-----2--4--|-----------1--1--------5--|
--------------------------|--3---3----3--3-----3--5--|--2-----------------------|
--------------------------|--------------------------|--------------------------|
--4---4-4-----2-----2-----|--1-----1-----------------|--0---0-0-----0---0-0-----|
--------------------------|--------------2---2-4-----|--------------------------|


                            ^                                                  
  E.  S E.  S E.  S Q       E.  S E  E  E.  S E.  S    E.  S E.  S E.  S Q     
--0-----------------0----|--3--------2--2-----------|--------5-----3-----2----|
--1-----1-----3-----1----|--3--------3--3-----------|--------3-----1-----0----|
--------2-----4----------|--------------------------|-------------------------|
-------------------------|--0---0-0-----0---0-0---0-|--0---0-0---0-0---0-0----|
--0---0-0---0-0---0-0----|--------------------------|-------------------------|
-------------------------|--------------------------|-------------------------|


                                                                   [Final Chorus]

  ^                         ^                                   ^              ^           ^   
  E.  S E.  S E.  S Q       W                   H.           E  E     E.  S E  E  E.  S E  E   
--0-----------------2----|--4----------------|--L------------L--2--|--4---4----2--4---4----5--|
-------------------------|--5----------------|--L------------L--4--|--5---5----4--5---5----4--|
-------------------------|-------------------|---------------------|--------------------------|
--2-----------------4----|--6----------------|--L------------L-----|--2-----2-----------2-----|
-------------------------|-------------------|---------------------|--------------------------|
--0---0-0---0-0---0-0----|--0----------------|--L------------L-----|--------------------------|


              ^              ^            ^              ^            ^            
  E.  S E  E  E  E  E  E     E  S S E  E  E  S S Q       E  S S E  E  E  E  E  E   
--2---2----2--2--5--4--2--|--0--0-0----0-----0-0------|--3--3-3----3--3--2--3--7--|
--2---2----2--2-----------|--2----2----2--4-----------|--5----5----5--3--1--3-----|
--------------1-----------|---------------4----4------|------------------------0--|
--1-----1-----------------|---------------------------|---------------0-----0-----|
--------------------------|--4------4-----2------2----|--0------0-----------------|
--------------------------|---------------------------|---------------------------|


              ^                           ^             ^                         
  E.  S E  E  E.  S E  E     E  S S E  E  Q    E  E     E  S S E  E  E.  S E.  S  
--7--------3--8---7-------|--5--5-5----3--2-------2--|--3--3-3----3--2---2-------|
--0-----3-----5--------8--|--5--5-5----5--4-------3--|--5--5-5----5--3---3-------|
-----------5--7---7----7--|--------------------------|---------------------------|
--------------5-----5-----|--------------------------|--2------2-----0-----0-----|
--------------------------|---------------2----2-----|---------------------------|
--3-----3-----------------|--2------2----------------|---------------------------|


  ^                           ^                         ^     ^          ^     
  E  S S E  E  E.  S E.  S    E.  S E.  S Q    E  E     E.  S E.  S Q    Q     
--0--0-0----0--------------|----------------------3--|--3---5-5----------5----|
--1--1-1----1--3---3-------|--1---3-3----------------|--1---3-3----------3----|
---------------4---4-------|--0---2-2-------------2--|------------------------|
---------------------------|-------------------------|--0-----0---0-0----0----|
--3------3-----------------|--0-----0---0-0----0-----|------------------------|
---------------3-----3-----|-------------------------|------------------------|


                                                  [Outro]

  ^                         ^                                                 
  E.  S E.  S Q    E  E     E.  S E.  S Q    Q       E.  S E.  S E.  S E.  S  
--6-------------------3--|--6---5-5---------------|--7-----------3-----------|
------8-8----------------|--4---6-6---------------|--3-----------0-----------|
--8---5-5-------------5--|------------------------|--4-----------0-----------|
-------------------------|--3-----3---3-3----3----|--------------------------|
--6-----6---6-6----6-----|------------------------|--------------------------|
-------------------------|------------------------|--3---3-3---3-3---3-3---3-|


  ^                          ^                 ^                   ^            
  E.  S E.  S E.  S E  E     E.  S E.  S E.  S Q       E.  S E  E  E.  S E.  S  
--3-----------------------|--------------------5----|--8--------7--7-----------|
--1-----------3--------3--|--3-----------------3----|--3--------3--3-----------|
--0-----------------------|--0-----------------2----|--------------4-----------|
--------------------------|-------------------------|--------------------------|
--------------------------|-------------------------|--------------------------|
--3---3-3---3-3---3-3-----|--3---3-3---3-3---3-3----|--3---3-3-----3---3-3---3-|


             ^                                                                
  E.  S Q    Q    Q       E.  S E.  S E.  S E.  S    E.  S E.  S E.  S E.  S  
-----------------------|--------------------------|--------------------1-----|
-----------------------|--4-----------------------|--------------1-----1-----|
-------------0---------|--3-----------3-----------|--------------2-----------|
------------------3----|--1---1-1---1-1---1-1---1-|--3-----------------------|
-------------2----0----|--------------------------|--0-----------------------|
--3---3-3----3----1----|--------------------------|--1---1-1---1-1---1-1---1-|


                             ^                        ^        ^         
  E.  S E  E  E.  S E.  S    E.  S E  E  Q    Q       H        H         
--8--------7--3-----------|--------------7---------|--7--------3--------|
--3-----------------------|--------------3---------|--3--------1--------|
--5--------5--4-----4-----|--5--------4------------|--4--------0--------|
--------------------5-----|--5----------------5----|--------------------|
--------------------------|-----------5------------|--------------------|
--3---3-3-----3---3-3---3-|--3---3-3-----3----3----|--3--------3--------|


  ^                      ^         ^            ^         ^             ^                  
  Q    Q    Q    Q       Q    Q    Q    Q       Q    Q    Q    Q        H        H         
--3-------------------|----------------------|----------------------|--10--------7--------|
--3-------------------|--3----1--------------|-----------------1----|------------0--------|
--0---------0----3----|------------3----0----|--3----2----3---------|---0--------0--------|
-------3---------3----|--1----1----1----1----|--3----3----3----3----|---0-----------------|
----------------------|----------------------|----------------------|---------------------|
--3-------------------|----------------------|--1-------------------|---------------------|


   ^                      ^                                      
   H         H            W                   W                  
---8--------10--------|--10----------------|--L----------------||
----------------------|---8----------------|--L----------------||
---0---------0--------|---0----------------|--L----------------||
--10------------------|---0----------------|--L----------------||
----------------------|--------------------|-------------------||
----------------------|--------------------|-------------------||




Duration Legend
---------------
W - whole
H - half
Q - quarter
E - 8th
S - 16th
T - 32nd
X - 64th
. - note dotted
|-n-|  - n-tuplets


Tablature Legend
----------------
L - tied note
x - dead note
g - grace note
(n) - ghost note
> - accentuded note
NH - natural harmonic
AH - artificial harmonic
TH - tapped harmonic
SH - semi harmonic
PH - pitch harmonic
h - hammer on
p - pull off
b - bend
br - bendRelease
pb - preBend
pbr - preBendRelease
brb - bendReleaseBend
\n/ - tremolo bar dip
\n - tremolo bar dive
-/n - tremolo bar Release up
/n\ - tremolo bar inverted dip
/n - tremolo bar return
-\n - tremolo bar Release down
S - shift slide
s - legato slide
/ -  slide into from below or out of upwards
\ -  slide into from above or out of downwards
~ - vibrato
W - wide vibrato
tr - trill
TP - tremolo picking
T - tapping
S - slap
P - pop
< - fade in
^ - brush up
v - brush down
Login or Register to remove this ad.