Ads

Last Stardust (Fate/stay night: Unlimited Blade Works) Guitar Tab

Submitted: Jun 21, 2015 by Otakusician

5
Average: 5 (8 votes)
Download | Listen
Game: Fate/stay night: Unlimited Blade Works
Composer(s): Yuki Kajiura, Hideyuki Fukasawa
Style: Arrangement, Fingerstyle

Click here for a video example.

AutoScroll: Slow | Medium | Fast
                   |--3--|     |--3--|  |--3--|  |--3--|  |--3--|   
     H        Q    E  E  E     E  E  E  E  E  E  E  E  E  E  E  E   
E||----------------2--------|-----------------------------0--0--0--|
B||----------------------2--|--3--3--3--3--3--3--3--3--3--0--0--0--|
G||-------------------2-----|--4--4--4--4--4--4--4--4--4-----------|
D||-------------------------|-----------4-----------------4--------|
A||-------------------------|--2-----------------2-----------------|
E||-------------------------|--------------------------------------|


  |--3--|  |--3--|  |--3--|  |--3--|     |--3--|  |--3--|  |--3--|  |--3--|   
  E  E  E  E  E  E  E  E  E  E  E  E     E  E  E  E  E  E  E  E  E  E  E  E   
-----------------------------0--0--0--|--2--2--2--2--2--2--2--2--2--3--3--3--|
--3--3--3--3--3--3--3--3--3--0--0--0--|--3--3--3--3--3--3--3--3--3--3--3--3--|
--0--0--0--0--0--0--0--0--0-----------|-----------2-----------------2--------|
-----------0-----------------0--------|--0-----------------0-----------------|
--------------------------------------|--------------------------------------|
--3-----------------3-----------------|--------------------------------------|


  |--3--|  |--3--|  |--3--|  |--3--|     |--3--|  |--3--|  |--3--|  |--3--|   
  E  E  E  E  E  E  E  E  E  E  E  E     E  E  E  E  E  E  E  E  E  E  E  E   
--0--0--0--0--0--------------------0--|--2--------2--------3--------3--2--3--|
--2--2--2--2--2--3--2--2--2--2--3-----|--------------------------------------|
--------------------2--2--2-----------|--------4--------4--------4-----------|
-----------2-----------------2--------|-----4--------4--------4--------------|
--0-----------------0-----------------|--2--------2--------2--------2--------|
--------------------------------------|--------------------------------------|


  |--3--|  |--3--|  |--3--|  |--3--|     |--3--|  |--3--|  |--3--|  |--3--|   
  E  E  E  E  E  E  E  E  E  E  E  E     E  E  E  E  E  E  E  E  E  E  E  E   
--5-----5--5--5--5--3-----3-----2--3--|--5-----5--5--5--5--3-----3-----2--3--|
--------------------------------------|--------------------------------------|
-----0-----------------0--------------|-----2-----------------2--------------|
--------------------------------------|--0--------0--------0--------0--------|
--------------------------------------|--------------------------------------|
--3--------3--------3--------3--------|--------------------------------------|


  |--3--|  |--3--|  |--3--|  |--3-|     |--3--|  |--3-|  |--3--|  |--3-|   
  E  E  E  E  E  E  E  E  E  Q    E     E  E  E  Q    E  E  E  E  Q    E   
--2-----0--0-----0-------------------|------------------------------------|
--------------3--------------2-------|--2-------------3--3----------------|
-----2--------------------2-------2--|--0-----0-------0--0-----0-------2--|
-----------------------2-------------|-----0----------------0-------------|
--0--------0--------0----------------|------------------------------------|
-------------------------------------|--3--------3-------3--------3-------|


  |--3--|  |--3-|  |--3--|  |--3-|     |--3-|  |-3|    |--3-|  |-3|     
  E  E  E  Q    E  E  E  E  Q    E     Q    E  E  Q    Q    E  E  Q     
------------------------------------|-------------0----0----2----------|
--2-------------3--3----------------|--2----3-----0----2----2-----2----|
--4-----4-------4--4-----4-------2--|--0----0--------------------------|
-----4----------------4-------------|----------------------------------|
--2--------2-------2--------2-------|------------------0-------0-------|
------------------------------------|--3-------3-----------------------|


  |--3--|  |--3-|       |--3--|     |--3--|  |--3--|  |--3--|  |--3--|   
  E  E  E  Q    E  Q    E  E  E     E  E  E  E  E  E  E  E  E  E  E  E   
------------------------5--3--2--|--2-----------------1--------2--------|
--2-------------3--3-------------|--3--------4--------4--------4--------|
--4-----4-------4--4-------------|-----2-----------2-----3-----------3--|
-----4---------------------------|--0-----0-----0-----1-----1-----1-----|
--2--------2-------2----2--------|--------------------------------------|
---------------------------------|--------------------------------------|


  |--3--|  |--3--|  |--3--|   |--3--|           |--3--|       |--3--|   
  E  E  E  E  E  E  E  E  E   Q     E      Q    E  E  E  Q    E  E  E   
--5--------3--------5--------14----14--|---L---------------------------|
-----0-----------0-----0------0-----0--|---L---------------------3-----|
--0-----0-----0-----------0---0--------|----------------------4-----4--|
---------------------------------------|-------------------------------|
---------------------------------------|--------2--2--2--2-------------|
--------------------3---------0--------|-------------------------------|


  |--3--|  |--3--|  |--3--|  |--3--|     |--3-|  |--3--|  |--3-|  |--3--|   
  E  E  E  E  E  E  E  E  E  E  E  E     Q    E  E  E  E  Q    E  E  E  E   
--2--------2--------0-----------------|------------------------------------|
--0--------0-----0--2-----------2--0--|-------5--5--3--2--3----------3-----|
--------0-----0--------2--------------|--2----------------4-------4-----4--|
-----0--------------------2-----------|------------------------4-----------|
--------------------0--------0--------|-------------------2----------------|
--3--------3--------------------------|--2-------2-------------------------|


  |--3--|  |--3--|  |--3--|  |--3--|          |--3-|  |-3|    |--3--|   
  E  E  E  E  E  E  E  E  E  E  E  E     Q    Q    E  E  Q    E  E  E   
--2--------2--------0--------0--2--3--|--6----2----0--0----------------|
--0--------0-----0--2-----------------|-------2----------3-------3-----|
--------0-----0--------2--------------|-----------------------------4--|
-----0--------------------2-----------|--------------------------------|
--------------------0--------0--------|-------1-------2-------2--------|
--3--------3--------------------------|--6-----------------------------|


  |--3--|       |--3--|          |--3--|       |--3--|  |--3-|   
  E  E  E  Q    E  E  E  Q       E  E  E  Q    E  E  E  Q    E   
-----------7----5-------------|-----------3----2----------------|
--7----------------------5----|--2--------2----3--------3----2--|
--------0-------------2-------|----------------------4--4-------|
-----0-------------2----------|-----3-------------4-------------|
----------------0--------0----|--1-----1-------2--------2-------|
--3--------3------------------|---------------------------------|


  |--3--|  |--3--|  |--3--|  |--3--|     |--3--|  |--3--|  |--3--|  |--3--|   
  E  E  E  E  E  E  E  E  E  E  E  E     E  E  E  E  E  E  E  E  E  E  E  E   
--------------------------------------|--------------------------------------|
--0--------3-----2--0--------3-----2--|--0-----------------------0--3-----2--|
--0-----0--0--------2-----2--2--------|-----------------------------2-----2--|
-----0--------0--------2--------2-----|--------------------0--0--0-----0-----|
--------------------0--------0--------|--2--2--2--4--4--4--------------------|
--3--------3--------------------------|--------------------------------------|


  |--3--|  |--3--|  |--3--|  |--3--|                       
  E  E  E  E  E  E  E  E  E  E  E  E     W                 
-----------------2--0--------5--------|--7----------------|
--0-----0--3-----0--2--------------7--|--0----------------|
--0-----0--0--------------2-----------|-------------------|
-----0--------0--------2--------------|-------------------|
--------------------0-----------0-----|-------------------|
--3--------3--------------------------|--7----------------|


  |--3--|            |--3-|     |--3--|            |--3-|   
  E  E  E  Q    Q    Q    E     E  E  E  Q    Q    Q    E   
--2--------0----L------------|--2--------0----L------------|
-----2--3------------3----2--|-----2--3------------3----2--|
-----------------------------|-----------------------------|
-----------------------------|-----------------------------|
-----------------------------|-----------------------------|
-----------------------------|-----------------------------|


  |--3--|            |--3-|     |--3--|            |--3-|   
  E  E  E  Q    Q    Q    E     E  E  E  Q    Q    Q    E   
--2--------0----L------------|--2--------0----L------------|
-----2--3------------3----2--|-----2--3------------3----2--|
-----------------------------|-----------------------------|
--0--------------------------|-----------------------------|
-----------------------------|-----------------------------|
-----------------------------|--0--------------------------|


  |--3--|            |--3-|     |--3--|            |--3-|                       
  E  E  E  Q    Q    Q    E     E  E  E  Q    Q    Q    E     W                 
--2--------------------------|--2--------------------------|-------------------|
-----2--3--5----L----3----2--|-----2--3--5----L----3----2--|--L----------------|
-----------------------------|-----------------------------|-------------------|
-----------------------------|-----------------------------|-------------------|
--2--------------------------|--2--------------------------|-------------------|
-----------------------------|-----------------------------|-------------------|


  |--3--|       |--3--|          |--3--|       |--3--|        
  E  E  E  Q    E  E  E  Q       E  E  E  Q    E  E  E  Q     
------------------------------|------------------------------|
------------------------------|-----------2-------------2----|
-----2-----4-------2-----4----|-----2-------------2----------|
--4-----4-------4-----4-------|--4-----4-------4-----4-------|
-----------2-------------2----|-----------2-------------2----|
------------------------------|------------------------------|


  |--3--|       |--3--|          |--3--|       |--3--|        
  E  E  E  Q    E  E  E  Q       E  E  E  Q    E  E  E  Q     
------------------------------|------------------------------|
-----------3-------------3----|-----------2-------------2----|
-----2-------------2----------|-----2-------------2----------|
--4-----4-------4-----4-------|--4-----4-------4-----4-------|
-----------2-------------2----|-----------2-------------2----|
------------------------------|------------------------------|


  |--3--|  |--3--|  |--3--|  |--3--|     |--3--|  |--3--|  |--3--|  |--3--|   
  E  E  E  E  E  E  E  E  E  E  E  E     E  E  E  E  E  E  E  E  E  E  E  E   
--------------------------------------|--------------------------------------|
--------------------------------------|-----------2-----------------2--------|
-----2-----4-----------2-----4--------|-----2-----------------2--------------|
--4-----4-----------4-----4-----------|--4-----4-----------4-----4-----------|
-----------2--2--2-----------2--2--2--|-----------2--2--2-----------2--2--2--|
--------------------------------------|--------------------------------------|


  |--3--|  |--3--|  |--3--|  |--3--|     |--3--|  |--3--|  |--3--|  |--3--|   
  E  E  E  E  E  E  E  E  E  E  E  E     E  E  E  E  E  E  E  E  E  E  E  E   
--------------------------------------|--------------------------------------|
-----------3-----------------3--------|-----------2-----------------2--------|
-----2-----------------2--------------|-----2-----------------2--------------|
--4-----4-----------4-----4-----------|--4-----4-----------4-----4-----------|
-----------2--2--2-----------2--2--2--|-----------2--2--2-----------2--2--2--|
--------------------------------------|--------------------------------------|


                           |--3--|  |--3--|  |--3--|   
  W                   Q    E  E  E  E  E  E  E  E  E   
-------------------|----------------------------------|
-------------------|----------------------------3-----|
-------------------|-------------------------4-----4--|
-------------------|----------------------------------|
--2----------------|-------2--2--2--2--2--2-----------|
-------------------|----------------------------------|


    |--3--|  |--3--|  |--3--|  |--3--|     |--3-|  |--3--|  |--3-|  |--3--|   
    E  E  E  E  E  E  E  E  E  E  E  E     Q    E  E  E  E  Q    E  E  E  E   
|---2--------2--------0-----------------|------------------------------------|
|---0--------0-----0--2-----------2--0--|-------5--5--3--2--3----------3-----|
|*--------0-----0--------2--------------|--2----------------4-------4-----4--|
|*-----0--------------------2-----------|------------------------4-----------|
|---------------------0--------0--------|-------------------2----------------|
|---3--------3--------------------------|--2-------2-------------------------|


  |--3--|  |--3--|  |--3--|  |--3--|          |--3-|  |-3|    |--3--|   
  E  E  E  E  E  E  E  E  E  E  E  E     Q    Q    E  E  Q    E  E  E   
--2--------2--------0-----------------|-------2----0--0----------------|
--0--------0-----0--2-----------------|------------------3-------3-----|
--------0-----0--------2-----------0--|--3--------------------------4--|
-----0--------------------2--2--4-----|--------------------------------|
--------------------0-----------------|--1----1-------2-------2--------|
--3--------3--------------------------|--------------------------------|


  |--3--|       |--3--|          |--3--|       |--3--|  |--3-|   
  E  E  E  Q    E  E  E  Q       E  E  E  Q    E  E  E  Q    E   
-----------7----5-------------|-----------3----2----------------|
--7----------------------5----|--2--------2----3--------3----2--|
--------0-------------2-------|----------------------4--4-------|
-----0-------------2----------|-----3-------------4-------------|
----------------0--------0----|--1-----1-------2--------2-------|
--3--------3------------------|---------------------------------|


  |--3--|  |--3--|  |--3--|  |--3--|     |--3--|  |--3--|  |--3--|  |--3--|     
  E  E  E  E  E  E  E  E  E  E  E  E     E  E  E  E  E  E  E  E  E  E  E  E   3x
--------------------------------------|---------------------------------------||
--0--------3-----2--0--------3-----2--|--0-----------------------------3------||
--0-----0--0--------2-----2--2--------|-----------------------------4-----4--*||
-----0--------0--------2--------2-----|--------------------0--0--0--0--0--0--*||
--------------------0--------0--------|--2--2--2--4--4--4---------------------||
--3--------3--------------------------|---------------------------------------||


                 |--3--|     |--3--|       |--3--|        
  Q    Q    Q    E  E  E     E  E  E  Q    E  E  E  Q     
--------------------------|-----------7----5-------------|
-------2------------3-----|--7----------------------5----|
--3---------4----4-----4--|--------0-------------2-------|
--------------------------|-----0-------------2----------|
--1----1----2-------------|----------------0--------0----|
--------------------------|--3--------3------------------|


  |--3--|       |--3--|  |--3-|     |--3--|  |--3--|  |--3--|  |--3--|   
  E  E  E  Q    E  E  E  Q    E     E  E  E  E  E  E  E  E  E  E  E  E   
-----------3----2----------------|--------------------------------------|
--2--------2----3--------3----2--|--0--------3-----2--0--------3-----2--|
----------------------4--4-------|--0-----0--0-----0--2-----2--2-----2--|
-----3-------------4-------------|-----0--------0--------2--------2-----|
--1-----1-------2--------2-------|--------------------0--------0--------|
---------------------------------|--3--------3--------------------------|


  |--3--|  |--3--|  |--3--|  |--3-|          |--3-|       |--3-|   
  E  E  E  E  E  E  E  E  E  Q    E     Q    Q    E  Q    Q    E   
-------------------------------------|------------2--0----5-------|
--0--------------------------3----2--|--0----3-----------------7--|
--------------------------4----------|----------------------------|
--------------------0--0-------------|----------------------------|
--2--2--2--4--4--4-------------------|---------------0------------|
-------------------------------------|--3-------------------------|


  W                  
--7----------------||
--0----------------||
-------------------||
-------------------||
-------------------||
--7----------------||
Login or Register to remove this ad.

1 comment on Last Stardust

Amazing

5

Amazing tab, thanks a lot <3