Ads

Theme Song (Farmville) Guitar Tab

Submitted: Feb 25, 2016 by tmpmachine (Last updated: Feb 28, 2016)

5
Average: 5 (1 vote)
Download | Listen
Game: Farmville
Composer(s): Steve Kirk
Style: Arrangement, Fingerstyle

Click here for a video example.

AutoScroll: Slow | Medium | Fast
Farmville - Theme Song
Composed by Steve Kirk
Tabbed by tmpmachine



Do : C (capo 5)
(origin : F)

                 C       G       Am      G
e|-------------------0-------3-------0-----0-----|
B|-------------------1-------3---1-------3---3-1-|
G|-----------------0---0---0---0---0---0---------|
D|-----------------------------------------------|
A|-----------0-2-3---------------0---------------|
E|---------3-------------3---------------3-------|


   F       G       C       C7
e|---------0-----------------------|
B|-3---1-1-----1-1-----1-----------|
G|---0-------0-------0---0-3---0-1-|
D|-3---2---1---0-------------2-----|
A|-----------------3-------3-------|
E|---------------------------------|

   F               C
e|-----------------0-----------0---|
B|---1---3---1-3-1---1-----------4-|
G|-2---2-------2-------2-0---0-----|
D|-3-------3-----------------------|
A|-----------------3-------3-------|
E|---------------------------------|

   D               G
e|-------0---------------7-7-5-|
B|-3-----------1-3-------0-----|
G|-----2-----0---------0-------|
D|---0-----0---------3---------|
A|-0---------------2-----------|
E|-----------------------------|

   C       G       Am    G
e|-8-----3-----3-------0-1------|
B|-----5-------3-------1-0------|
G|---5-------0---0---0-----0-1--|
D|-5-------5-----------------0--|
A|-----------------0------------|
E|-----------------------3------|

   F           G       C      
e|-----------------------------5-3-----|
B|-----1---3/4-3-1-0-1-----0-------3---|
G|-2---------------------0---0-------0-|
D|---3---2-----1---0-----------3-------|
A|---------------------3---2-----------|
E|-------------------------------------|

   F     Fm      C       Am
e|-5-----4---------3-3---0---|
B|---6-----6---3-5-----3---1-|
G|-----5-----5---------------|
D|-7-----6-------5-------2---|
A|---------------------------|
E|---------------------------|

     G                      repeat from beginning 'till eternity~
e|-----0-------------------------|
B|---3---3-------------0---------|
G|---------2---------------------|
D|-------------------------------|
A|---------0-----------2---------|
E|---3---------------------------|
Login or Register to remove this ad.

1 comment on Theme Song

liked

5

liked