Ads

Blood Dragon Theme (Far Cry 3: Blood Dragon) Guitar Tab

Submitted: May 19, 2013 by Ljas

5
Average: 5 (3 votes)
Download | Listen
Game: Far Cry 3: Blood Dragon
Composer(s): Power Glove
Style: Arrangement, Fingerstyle

AutoScroll: Slow | Medium | Fast
Blood Dragon Theme
Far Cry 3: Blood Dragon                                          
Composed by Power Glove
Tabbed by Ljas
19.5.2013
Original: https://soundcloud.com/daawatcha-1/blood-dragon-theme

BPM=144
(Capo 1)
First bar plays 15 times in the original version

     E  E  E  E  E  E  E  E   3x  E  E  E  E  E  E  E  E     E  E  E  E  E  E  E  E   
E||---------------------------||--------------------------|--0-----------------L-----|
B||---------------------------||--------------------------|-----------------------1--|
G||--------------------------*||-----------------------2--|--------------------------|
D||--------------------------*||--------------------------|--------------------------|
A||--0--0--2--3--0--0--2--3---||--0--0--2--3--0--0--2--3--|--0--0--2--3--0--0--2--3--|
E||---------------------------||--------------------------|--------------------------|


  E  E  E  E  E  E  E  E     E  E  E  E  E  E  E  E     E  E  E  E  E  E  E  E   
-----------------------0--|--1-----------------L--0--|--------------------------|
--------------------------|--------------------------|--3-----------------L-----|
--2-----------------L-----|--------------------------|-----------------------2--|
--------------------------|--0--0--2--3--0--0--2--3--|--0--0--2--3--0--0--2--3--|
--0--0--2--3--0--0--2--3--|--------------------------|--------------------------|
--------------------------|--------------------------|--------------------------|


  E  E  E  E  E  E  E  E     E  E  E  E  E  E  E  E     E  E  E  E  E  E  E  E   
--0-----------------L-----|-----------------------0--|--------------------------|
-----------------------1--|--------------------------|--3-----------L-----1--0--|
--------------------------|--2-----------------L-----|--------------------------|
--------------------------|--------------------------|--------------------------|
--0--0--2--3--0--0--2--3--|--0--0--2--3--0--0--2--3--|-----------0-----------0--|
--------------------------|--------------------------|--1--1--3-----1--1--3-----|


  E  E  E  E  E  E  E  E     E  E  E  E  E  E  E  E     E  E  E  E  E  E  E  E   
--------------------------|--0-----------------L-----|-----------------------0--|
--L-----------------L-----|-----------------------1--|--------------------------|
-----------------------2--|--------------------------|--2-----------------L-----|
--------------------------|--------------------------|--------------------------|
-----------0-----------0--|--0--0--2--3--0--0--2--3--|--0--0--2--3--0--0--2--3--|
--1--1--3-----1--1--3-----|--------------------------|--------------------------|


  E  E  E  E  E  E  E  S S    E  E  E  E  E  E  E  E     E  E  E  E  E  E  E  E   
--1-----------------L--0---|--5-----------------L-----|--0-----------------L-----|
-------------------------3-|--------------------------|-----------------------1--|
---------------------------|-----------------------2--|--------------------------|
--0--0--2--3--0--0--2--3-L-|--0--0--2--3--0--0--2--3--|--------------------------|
---------------------------|--------------------------|--0--0--2--3--0--0--2--3--|
---------------------------|--------------------------|--------------------------|


  E  E  E  E  E  E  E  E     E  E  E  E  E  E  E  E     E  E  E  E  E  E  E  E   
-----------------------0--|--------------------------|--------------------------|
--------------------------|--3-----------L-----1--0--|--------------------L-----|
--2-----------------L-----|--------------------------|--------------------------|
--------------------------|--------------------------|--------------------------|
--0--0--2--3--0--0--2--3--|-----------0-----------0--|-----------0-----------0--|
--------------------------|--1--1--3-----1--1--3-----|--1--1--3-----1--1--3-----|


  E  E  E  E  E  E  E  E     E  E  E  E  E  E  E  E     E  E  E  E  E  E  E  E   
--------------------------|--------------------------|--------------------------|
--------------------------|-----------------------5--|--L-----0-----1-----3--5--|
--------------------------|--------------------------|-----2-----2-----2--------|
--------------------------|--------------------------|--------------------------|
--0--0--2--3--0--0--2--3--|--0--0--2--3--0--0--2--3--|--0--0--2--3--0--0--2--3--|
--------------------------|--------------------------|--------------------------|


  E  E  E  E  E  E  E  E     E  E  E  E  E  E  E  E     E  E  E  E  E  E  E  E   
--------------------------|--------------------------|--------------------------|
--L-----0-----1-----3--5--|--L-----0-----1-----3--5--|--L-----0-----1-----3--5--|
-----2-----2-----2--------|-----2-----2-----2--------|-----2-----2-----2--------|
--------------------------|--------------------------|--------------------------|
--0--0--2--3--0--0--2--3--|--0--0--2--3--0--0--2--3--|--0--0--2--3--0--0--2--3--|
--------------------------|--------------------------|--------------------------|


  E  E  E  E  E  E  E  E     E  E  E  E  E  E  E  E     E  E  E  E  E  E  E  E   
--------------------------|--------------------------|--------------------------|
--L-----0-----1-----3--5--|--L-----0-----1-----3--5--|--------0-----1-----3--5--|
-----2-----2-----2--------|-----2-----2-----2--------|-----2-----2-----2--------|
--------------------------|--------------------------|--------------------------|
--0--0--2--3--0--0--2--3--|--0--0--2--3--0--0--2--3--|--0--0--2--3--0--0--2--3--|
--------------------------|--------------------------|--------------------------|


  E  E  E  E  E  E  E  E     E  E  E  E  E  E  E   E     E  E  E  E  E  E  E  E   
--------------------------|---------------------------|--------------------------|
--------------------L-----|--------5-----6-----8--10--|--------------------L-----|
--------------------------|-----7-----7-----7---------|--------------------------|
--------------------------|---------------------------|--------------------------|
--0--0--2--3--0--0--2--3--|--5--5--7--8--5--5--7---8--|--5--5--7--8--5--5--7--8--|
--------------------------|---------------------------|--------------------------|


  E  E  E  E  E  E  E  E     E  E  E  E  E  E  E  E     E  E  E  E  E  E  E  E   
--------------------------|--------------------------|--------------------------|
--------0-----1-----3--5--|--------------------L-----|--------------------------|
-----2-----2-----2--------|--------------------------|--------0-----2-----4--5--|
--------------------------|--------------------------|-----3-----3-----3--------|
--0--0--2--3--0--0--2--3--|--0--0--2--3--0--0--2--3--|-----------0-----------0--|
--------------------------|--------------------------|--1--1--3-----1--1--3-----|


  E  E  E  E  E  E  E  E     E  E  E  E  E  E  E  E     E  E  E  E  E  E  E  E   
--------------------------|--0-----------------L-----|-----------------------0--|
--------------------------|-----------------------1--|--------------------------|
--------------------L--2--|--------------------------|--2-----------------L-----|
--------------------------|--------------------------|--------------------------|
-----------0-----------0--|--0--0--2--3--0--0--2--3--|--0--0--2--3--0--0--2--3--|
--1--1--3-----1--1--3-----|--------------------------|--------------------------|


  E  E  E  E  E  E  E  E     E  E  E  E  E  E  E  E     E  E  E  E  E  E  E  E   
--1-----------------L--0--|--------------------------|--0-----------------L-----|
--------------------------|--3-----------------L-----|-----------------------1--|
--------------------------|-----------------------2--|--------------------------|
--0--0--2--3--0--0--2--3--|--0--0--2--3--0--0--2--3--|--------------------------|
--------------------------|--------------------------|--0--0--2--3--0--0--2--3--|
--------------------------|--------------------------|--------------------------|


  E  E  E  E  E  E  E  E     E  E  E  E  E  E  E  E     E  E  E  E  E  E  E  E   
-----------------------0--|--------------------------|--------------------------|
--------------------------|--3-----------L-----1--0--|-----------------------L--|
--2-----------------L-----|--------------------------|--------------------------|
--------------------------|--------------------------|--------------------------|
--0--0--2--3--0--0--2--3--|-----------0-----------0--|-----------0-----------0--|
--------------------------|--1--1--3-----1--1--3-----|--1--1--3-----1--1--3-----|


  E  E  E  E  E  E  E  E     E  E  E  E  E  E  E  E     E  E  E  E  E  E  E  E   
--------------------------|--------------------------|--------------------------|
--------------------------|--------------------------|--------------------------|
--------------------------|--------------------------|--------------------------|
--------------------------|--------------------------|--------------------------|
--0--0--2--3--0--0--2--3--|--0--0--2--3--0--0--2--3--|--0--0--2--3--0--0--2--3--|
--------------------------|--------------------------|--------------------------|


  E  E  E  E  E  E  E  E     E  E  E  E  E  E  E  E     E  E  E  E  E  E  E  E   
--------------------------|--------------------------|--------------------------|
--------------------------|--------------------------|--------------------------|
--------------------------|--------------------------|--------------------------|
--------------------------|--------------------------|--------------------------|
--0--0--2--3--0--0--2--3--|--0--0--2--3--0--0--2--3--|--0--0--2--3--0--0--2--3--|
--------------------------|--------------------------|--------------------------|


  E  E  E  E  E  E  E  E     E  E  E  E  E  E  E  E     E  E  E  E  E  E  E  E   
--------------------------|--------------------------|--------------------------|
--------------------------|--------------------------|--------------------------|
--------------------------|--------------------------|--------------------------|
--------------------------|--------------------------|--------------------------|
--0--0--2--3--0--0--2--3--|--0--0--2--3--0--0--2--3--|--0--0--2--3--0--0--2--3--|
--------------------------|--------------------------|--------------------------|


  E  E  E  E  E  E  E  E     E  E  E  E  E  E  E  E     E  E  E  E  E  E  E  E   
--------------------------|--5--------3--------1-----|-----0--------------0-----|
--------------------------|--------------------------|--------------3-----------|
--------------------------|--------------------------|--------------------------|
--------------------------|--------------------------|--------------------------|
--0--0--2--3--0--0--2--3--|--0--0--2--3--0--0--2--3--|--0--0--2--3--0--0--2--3--|
--------------------------|--------------------------|--------------------------|


  E  E  E  E  E  E  E  E     E  E  E  E  E  E  E  E     E  E  E  E  E  E  E  E   
--5--------3--------1-----|-----0--------------0-----|--5--------3--------1-----|
--------------------------|--------------3-----------|--------------------------|
--------------------------|--------------------------|--------------------------|
--------------------------|--------------------------|--------------------------|
--0--0--2--3--0--0--2--3--|--0--0--2--3--0--0--2--3--|--0--0--2--3--0--0--2--3--|
--------------------------|--------------------------|--------------------------|


  E  E  E  E  E  E  E  E     E  E  E  E  E  E  E  E     E  E  E  E  E  E  E  E   
-----0--------------0-----|--5--------3--------1-----|-----0--------------0-----|
--------------3-----------|--------------------------|--------------3-----------|
--------------------------|--------------------------|--------------------------|
--------------------------|--------------------------|--------------------------|
--0--0--2--3--0--0--2--3--|--0--0--2--3--0--0--2--3--|--0--0--2--3--0--0--2--3--|
--------------------------|--------------------------|--------------------------|


  E  E  E  E  E  E  E  E     E  E  E  E  E  E  E  E     E  E  E  E  E  E  E  E   
--5--------3--------1-----|-----0--------------0-----|--5--------3--------1-----|
--------------------------|--------------3-----------|--------------------------|
--------------------------|--------------------------|--------------------------|
--------------------------|--------------------------|--------------------------|
--0--0--2--3--0--0--2--3--|--0--0--2--3--0--0--2--3--|--0--0--2--3--0--0--2--3--|
--------------------------|--------------------------|--------------------------|


  E  E  E  E  E  E  E  E     E  E  E  E  E  E  E  E     E  E  E  E  E  E  E  E   
-----0--------------0-----|--5--------3--------1-----|-----0--------------0-----|
--------------3-----------|--------------------------|--------------3-----------|
--------------------------|--------------------------|--------------------------|
--------------------------|--------------------------|--------------------------|
--0--0--2--3--0--0--2--3--|--0--0--2--3--0--0--2--3--|--0--0--2--3--0--0--2--3--|
--------------------------|--------------------------|--------------------------|


  E  E  E  E  E  E  E  E     E  E  E  E  E  E  E  E     E  E  E  E  E  E  E  E   
--5--------3--------1-----|-----0--------------0-----|--5--------3--------1-----|
--------------------------|--------------3-----------|--------------------------|
--------------------------|--------------------------|--------------------------|
--------------------------|--------------------------|--0--0--2--3--0--0--2--3--|
--0--0--2--3--0--0--2--3--|--0--0--2--3--0--0--2--3--|--------------------------|
--------------------------|--------------------------|--------------------------|


  E  E  E  E  E  E  E  E     E  E  E  E  E  E  E  E     E  E  E  E  E  E  E  E   
-----0--------------0-----|--5--------3--------1-----|-----0--------------0-----|
--------------3-----------|--------------------------|--------------3-----------|
--------------------------|--------------------------|--------------------------|
--0--0--2--3--0--0--2--3--|--------------------------|--------------------------|
--------------------------|--0--0--2--3--0--0--2--3--|--0--0--2--3--0--0--2--3--|
--------------------------|--------------------------|--------------------------|


  E  E  E  E  E  E  E  E     E  E  E  E  E  E  E  E     E  E  E  E  E  E  E  E   
--5--------3--------1-----|-----0--------------------|--0-----------------L-----|
--------------------------|--------------3-----------|-----------------------1--|
--------------------------|-----------------------2--|--------------------------|
--------------------------|--------------------------|--------------------------|
-----------0-----------0--|-----------0-----------0--|--0--0--2--3--0--0--2--3--|
--1--1--3-----1--1--3-----|--1--1--3-----1--1--3-----|--------------------------|


  E  E  E  E  E  E  E  E     E  E  E  E  E  E  E  E     E  E  E  E  E  E  E  E   
-----------------------0--|--1-----------------L--0--|--------------------------|
--------------------------|--------------------------|--3-----------------L-----|
--2-----------------L-----|--------------------------|-----------------------2--|
--------------------------|--0--0--2--3--0--0--2--3--|--0--0--2--3--0--0--2--3--|
--0--0--2--3--0--0--2--3--|--------------------------|--------------------------|
--------------------------|--------------------------|--------------------------|


  E  E  E  E  E  E  E  E     E  E  E  E  E  E  E  E     E  E  E  E  E  E  E  E   
--0-----------------L-----|-----------------------0--|--------------------------|
-----------------------1--|--------------------------|--3-----------L-----1--0--|
--------------------------|--2-----------------L-----|--------------------------|
--------------------------|--------------------------|--------------------------|
--0--0--2--3--0--0--2--3--|--0--0--2--3--0--0--2--3--|-----------0-----------0--|
--------------------------|--------------------------|--1--1--3-----1--1--3-----|


  E  E  E  E  E  E  E  E     E  E  E  E  E  E  E  E     E  E  E  E  E  E  E  E   
--------------------------|--0-----------------L-----|-----------------------0--|
--------------------L-----|-----------------------1--|--------------------------|
-----------------------2--|--------------------------|--2-----------------L-----|
--------------------------|--------------------------|--------------------------|
-----------0-----------0--|--0--0--2--3--0--0--2--3--|--0--0--2--3--0--0--2--3--|
--1--1--3-----1--1--3-----|--------------------------|--------------------------|


  E  E  E  E  E  E  E  S S    E  E  E  E  E  E  E  E     E  E  E  E  E  E  E  E   
--1-----------------L--0---|--5-----------------L-----|--0-----------------L-----|
-------------------------3-|--------------------------|-----------------------1--|
---------------------------|-----------------------2--|--------------------------|
--0--0--2--3--0--0--2--3-L-|--0--0--2--3--0--0--2--3--|--------------------------|
---------------------------|--------------------------|--0--0--2--3--0--0--2--3--|
---------------------------|--------------------------|--------------------------|


  E  E  E  E  E  E  E  E     E  E  E  E  E  E  E  E     E  E  E  E  E  E  E  E    
-----------------------0--|--------------------------|--------------------------||
--------------------------|--3-----------L-----1--0--|-----------------------L--||
--2-----------------L-----|--------------------------|--------------------------||
--------------------------|--------------------------|--------------------------||
--0--0--2--3--0--0--2--3--|-----------0-----------0--|-----------0-----------0--||
--------------------------|--1--1--3-----1--1--3-----|--1--1--3-----1--1--3-----||




Duration Legend
---------------
W - whole
H - half
Q - quarter
E - 8th
S - 16th
. - note dotted
|-n-|  - n-tuplets


Tablature Legend
----------------
L - tied note

Login or Register to remove this ad.