Ads

Main Theme (Piano Version) (Fairy Tail) Guitar Tab

Submitted: May 02, 2012 by c-style

5
Average: 5 (10 votes)
Download | Listen
Game: Fairy Tail
Composer(s): Yasuharu Takanashi
Style: Arrangement, Fingerstyle, Trill

AutoScroll: Slow | Medium | Fast
#----------------------------------PLEASE NOTE---------------------------------#
#This file is the author's own work and represents their interpretation of the #
#song. You may only use this file for private study, scholarship, or research. #
#------------------------------------------------------------------------------##

               FAIRY TAIL MAIN THEME (ARRANGED FROM PIANO VERSION)
             (From the 2010 Album "FAIRY TAIL" ORIGINAL SOUNDTRACK)

Music by Takanashi Yasuharu
Arranged by Christopher Marsh
Tabbed Out on 5/2/2012


Gtr I (E A D G B E) - 'Standard Tuning'

  Q=80
 4/4
  Gtr I
  Softly (piano)
  H    H      H.  E E   H    H     H   H     Q Q H    H.     E E
|-0----7----|-7---5---|-3----2---|-0---2---|-0---7-|-10------7------|
|-----------|-------3-|-3--------|-1---3---|---0-5-|-------8---8----|
|-0---------|-0-------|----------|-0---2---|-------|--0--7----------|
|-----------|-0-------|-0--------|-----0---|-------|----------------|
|-----------|---------|----------|-3-------|-------|----------------|
|-0---------|-3-------|----------|---------|-0-----|----------------|
  W                                                   Q  Q Q Q


  Q  Q  Q  Q    H     H       H     H
|-5-----3--2--|-0-----2-----|-0-----7----|
|----3--3-----|-------------|------------|
|----2--------|----0-----2--|------------|
|-0-----------|-------0-----|------------|
|-------------|-3-----------|----2--7----|
|-------------|-------------|-0----------|
                Q  Q  Q  Q    Q  Q  H


  H.        E E   H     H      H     H
|-7---------5---|-3-----2----|-0-----2------|
|-------------3-|-------3----|--------------|
|--------0------|----2-------|----0-----2---|
|-----0---------|-0----------|-------0------|
|---------------|------------|-3------------|
|-3-------------|------------|--------------|
  Q   Q  H        Q  Q  H      Q  Q  Q  Q


                            Crescendo.....
  H     H      H.     E E   Q  Q  Q  Q    H       H         Q.     E Q E E
|-0-----7---|-10------7---|-5-----3--2--|-0---------------|-0------2-3-2-0--|
|-----------|-----------8-|----3--3-----|-1-------3-------|-----------------|
|-----------|-------7-----|----2-----2--|---2-0-2---2---2-|-----------------|
|-----------|-----9-------|-0-----------|---------0---4---|------2-4-5------|
|----2--7---|-10----------|-------------|-3---------------|----2------------|
|-0-------7-|-------------|-------------|-----------------|-0---------------|
  Q  Q  Q Q    Q  Q H                     E E E E E E E E   E  E E E H


  Q    Q   Q   E E   Q.     E  Q  E   E   H      H        Q.     E Q  E E
|-----10---7-------|-5------7--5--3---2-|-0------2------|-0------2-3--2-0---|
|-3-----------10-8-|--------5--7--------|-1------3---3--|-------------------|
|------0-----------|------7-------------|-----0----2----|-------------------|
|---0----7-9-------|-0--7---------------|---2----0------|------2-4-5--------|
|------------------|--------------------|-3-------------|----2--------------|
|-3----------------|--------------------|---------------|-0-----------------|
  E E  E E H         E  E E E  Q    Q     E E Q  E E Q    E  E E E H


  Q    Q   Q   E E   Q.     E Q     E E   Q.     S S Q   Q
|-----10---7-------|-5------7-5tr7--3-2-|-0------2h3-2--------|
|-3----8---8--10-8-|--------5-7---------|-1----------3---3----|
|-4----0-----------|------7-------------|------0-------2-2----|
|---0----7-9-------|-0--7---------------|----2-------0---0----|
|------------------|--------------------|-3-------------------|
|-3----------------|--------------------|---------------------|
  E E  E E H         E  E E E Q     Q     E  E Q     E E Q


  forte
  Q.     E Q   E E   Q    Q   Q     E  E   Q.     E Q   E E   H       H
|-0------2-3---2-0-|-----10---7----------|-5------7-5---3-2-|-0-------2-----2-|
|-0----------------|-3----8---8----10--8-|--------5-7-5-3---|-1-----1-3---3---|
|--------0-4-0-4-0-|-4----0--------------|------7-----------|-----0-----2-----|
|------2-----------|---0----7-9-----9----|-0--7-------------|---2-----0-------|
|----2-------------|------------10----10-|------------------|-3---------------|
|-0----------------|-3-------------------|------------------|-----------------|
  E  E E E E E E E   E E  E E E  E  E  E   E  E E E E E E E   E E E E E E E E


  Q.     E Q   E E   Q    Q   Q     E  E
|-0------2-3---2-0-|-----10---7----------|
|-0----------------|-3----8---8----10--8-|
|--------0-4-0-4-0-|-4----0--------------|
|------2-----------|---0----7-9-----9----|
|----2-------------|------------10----10-|
|-0----------------|-3-------------------|
  E  E E E E E E E   E E  E E E  E  E  E


  Q.     E Q      E E   Q.     S S Q   Q
|-5------7-5tr7---3-2-|-0------2h3-2------|
|--------5-7----5-3---|-1----------3---3--|
|------7--------------|------0-------2----|
|-0--7----------------|----2-------0------|
|---------------------|-3-----------------|
|---------------------|-------------------|
  E  E E E E    E E E   E  E Q     E E Q


  mezzo forte
  E S S E E E S S E E   E S S E E E S S E E   E S S E E E S S E E
|-0-2-0-----------0---|-0-2-0-----------3-2-|-0-2-0-----------0------|
|-------3-0---0-3---3-|-------3-0---0-3-----|-------3-0---0-3---3----|
|-----------2---------|-0---------2---------|-----------2------------|
|-2-------------------|-0-------------------|-0----------------------|
|-2-------------------|---------------------|-0----------------------|
|-0-------------------|-3-------------------|------------------------|
  W                     W                     W

                             piano
  E S S E S S S S S S E E    E  S  S  E  E  E  S  S  E  E
|-3-2-0-2-0-------0---3-2-|-12-14-12-10----------10-12-10-|
|-----------3-0-3---3-----|-------------12-10-12----------|
|-------------------------|-------------------------------|
|-------------0-----------|-------------------------------|
|-3-----------0-----------|-------------------------------|
|-3-----------------------|--0----------------------------|
  H           H              W


   E  S  S  E  E  E  S  S  E  E
|-12-14-12-10----------10-15-14--|
|-------------12-10-12-----------|
|--0-----------------------------|
|--------------------------------|
|--------------------------------|
|--------------------------------|
   W


   E  S  S  E  E  E  S  S  E  E
|-12-14-12-10----------10-12-10-|
|-------------12-10-12----------|
|-------------------------------|
|--0----------------------------|
|-------------------------------|
|-------------------------------|
   W


  ritard to end
   E  S  S  E  S  S  S  S  S  S  E  E   W
|-15-14-12-14-12----------12----15-14-|-0------------*|
|----------------15-12-15----15-------|-0-------0----*|
|-------------------------------------|-------0------*|
|-10-----------------0----------------|-----2--------*|
|-------------------------------------|---2----------*|
|-------------------------------------|-0------------*|
   H                 H                  E E E E H


Duration Legend
---------------
W - whole; H - half; Q - quarter; E - 8th; S - 16th; T - 32nd; X - 64th; a - acciaccatura
+ - note tied to previous; . - note dotted; .. - note double dotted


Tablature Legend
----------------
 tr  - trill



***************************************************************************************
* Generated using Power Tab Editor by Brad Larsen - http://powertab.guitarnetwork.org *
***************************************************************************************
Login or Register to remove this ad.

6 comments on Main Theme (Piano Version)

/win

5

Was looking for an acoustic cover of this great job!

I admit I made a mess of myself when I saw Fairy tail tab pop up on new additions.

Great Tab

5

I'm unfamiliar with the source of the music, but this arrangement sounds really good.
Good job on the tab.

First Tab

Thanks for the positive feedback guys - was first tab so glad its going over well.
Just noticed it didn't add the performance notes:

Where there are trills marked, they're really slow - probably more a triplet than a trill, but a trill was a cleaner notation.

The early crescendo is supposed to be from the starting piano level to a mezzo forte, so when you repeat the theme again you can give it a bit more forte-oomph and significance.

Really important in the final section to hold the bottom notes as long as possible - which means you have to play the melody with like your ring finger and pinky. Tricky, but totally doable.

The OST goes an octave higher for the last part, but I probably wouldn't if I was going to perform it - just repeat the earlier section a bit softer. I personally can't get quite the satisfying sound I want playing past the 12th fret :/

---

Also, I highly recommend the Fairy Tail Anime - I believe the whole thing's available legit'ly on Hulu now. Its very shounen, with the whole the whole light-hearted comedic atmosphere and emphasis on friendship and whatnot, but there were times I shed manly tears. The music takes a very strong Irish/Celtic influence, even in the rock/metal tracks - this tab being a 'slow' variant of the Main Theme.

Awesome!

5

Thank you very much for this great arrangement.
It's extremely rare to find Fairy Tail quality tabs like this.
Please keep tabbing FT soundtrack. :D

Nice tab. I actually

5

Nice tab. I actually am watching Fairy Tail on Hulu currently, and I've been looking for a tab like this one.

--We live by the game controller, and we shall die by it as well.

Nice tab, man!

Nice tab, man!