Ads

In-Game Theme (Fairlight) Bass/Guitar Tab

Submitted: Jun 30, 2009 by auriplane (Last updated: Apr 05, 2010)

0
Download | Listen
Game: Fairlight
Composer(s): Mike Alsop
Style: 2 or more instruments, Transcription

AutoScroll: Slow | Medium | Fast
                             Fairlight - In-Game Theme GUITAR + BASS TAB
                                       Composed by Mike Alsop
         
                               Tabbed by auriplane ([email protected])


This is based on the C64 version.  Both guitars are in standard tuning, and the bass is a five-string 
in standard tuning.

Both guitars come in after the three-beat pickup the bass plays (marked "Intro").



                                     First Guitar (Upper Voice)
    Part A  (2x)

   E    S  E      S  S  S  E     E     Q            E    S  E      S  S  S  E     E     Q
E |--------14-----19-21-19-17----17----------------|--------12--------12----13----------------------|
B |-----14-----------------------------17----------|-----12--------12----12-------14----------------|
G |14----------------------------------------------|13----------------------------------13----------|
D |------------------------------------------------|------------------------------------------------|
A |------------------------------------------------|------------------------------------------------|
E |------------------------------------------------|------------------------------------------------|

   S  S  S  S  S  S  S  S  S  S  S  S  S  S  S  S   E     S  S  E     S  S  E     S  S  E     S  S
E |------------------------------------------------|------------------13-13-------17-17-------16-16-|
B |------7-----------7-----------7-----------7-----|------14-14-------------------------------------|
G |---6-----6-----6-----6-----7-----7-----7-----7--|------------------------------------------------|
D |7-----------7-----------7-----------7-----------|------------------------------------------------|
A |------------------------------------------------|------------------------------------------------|
E |------------------------------------------------|------------------------------------------------|

    Part B

   S  S  S  S  E     S  S  E     E     Q            S  S  S  S  E     S  S  E     E     Q
E |---7-----7--------7-----------------------------|---9-----9--------9-----------------------------|
B |------------------------------------------------|------------------------------------------------|
G |4-----4-----4--------4--3-----------------------|6-----6-----6--------6--5-----------------------|
D |------------------------------4-----------------|------------------------------6-----------------|
A |------------------------------------4-----------|------------------------------------6-----------|
E |------------------------------------------------|------------------------------------------------|

   S  S  S  S  E     S  S  E     E     Q            S  S  S  S  S  S  S  S  S  S  S  S  S  S  S  S 
E |---11----11-------11----------------------------|------------------------------6--6--------6--6--|
B |------------------------------------------------|------6--6--------6--6--8--8--------8--8--------|
G |8-----8-----8--------8--7-----------------------|7--7--------7--7--------------------------------|
D |------------------------------8-----------------|------------------------------------------------|
A |------------------------------------8-----------|------------------------------------------------|
E |------------------------------------------------|------------------------------------------------|

    Part C (3x)

   H                       Q           E     E      H                       S  S  S  S  S  S  S  S
E |------------------------------------------------|------------------------13-13-16-16-13-13-16-16-|
B |9-----------------------8-----------------------|------------------------------------------------|
G |------------------------------------8-----10----|L-----------------------------------------------|
D |------------------------------------------------|------------------------------------------------|
A |------------------------------------------------|------------------------------------------------|
E |------------------------------------------------|------------------------------------------------|

    Part D

   H                       Q           Q            W
E |------------------------------------------------|------------------------------------------------|
B |9-----------------------------------9-----------|9-----------------------------------------------|
G |------------------------10----------------------|------------------------------------------------|
D |------------------------------------------------|------------------------------------------------|
A |------------------------------------------------|------------------------------------------------|
E |------------------------------------------------|------------------------------------------------|

    Repeat back to Part A.





                                    Second Guitar (Lower Voice)

    Part A (2x)

   E    S  E      S  S  S  E     E     Q            E    S  E      S  S  S  E     E     Q
E |---------------16-17-16-14----12----------------|------------------------------------------------|
B |---------14-------------------------14----------|---------12-------12----14----------------------|
G |------14----------------------------------------|------13-------13----13-------13----------------|
D |16----------------------------------------------|14----------------------------------15----------|
A |------------------------------------------------|------------------------------------------------|
E |------------------------------------------------|------------------------------------------------|

   S  S  S  S  S  S  S  S  S  S  S  S  S  S  S  S   E     S  S  E     S  S  E     S  S  E     S  S
E |------------------------------------------------|------------------------------------------------|
B |------------------------------------------------|------------------9--9--------------------------|
G |------6-----------6-----------7-----------7-----|------10-10-------------------10-10-------10-10-|
D |---7-----7-----7-----7-----7-----7-----7-----7--|------------------------7-----------6-----------|
A |9-----------9-----------9-----------9-----------|------------8-----------------------------------|
E |------------------------------------------------|9-----------------------------------------------|

    Part B

   H                       H                        H                       H
E |------------------------------------------------|------------------------------------------------|
B |------------------------------------------------|------------------------------------------------|
G |------------------------------------------------|------------------------------------------------|
D |------------------------------------------------|------------------------------------------------|
A |------------------------9-----------------------|------------------------11----------------------|
E |7-----------------------------------------------|9-----------------------------------------------|

   H                       H                        S  S  S  S  S  S  S  S  S  S  S  S  S  S  S  S 
E |------------------------------------------------|------------------------------------------------|
B |------------------------------------------------|------------------------------8--8--------8--8--|
G |------------------------------------------------|------7--7--------7--7--8--8--------8--8--------|
D |------------------------------------------------|8--8--------8--8--------------------------------|
A |------------------------13----------------------|------------------------------------------------|
E |11----------------------------------------------|------------------------------------------------|

    Part C (3x)

E |------------------------------------------------|------------------------9--9--13-13-9--9--13-13-|
B |------------------------------------------------|------------------------------------------------|
G |8-----------------------8-----------------------|------------------------------------------------|
D |------------------------------------10----11----|------------------------------------------------|
A |------------------------------------------------|------------------------------------------------|
E |------------------------------------------------|------------------------------------------------|

    Part D

   H                       Q           Q            W
E |------------------------------------------------|------------------------------------------------|
B |------------------------------------------------|------------------------------------------------|
G |8-----------------------------------------------|8-----------------------------------------------|
D |------------------------11----------11----------|------------------------------------------------|
A |------------------------------------------------|------------------------------------------------|
E |------------------------------------------------|------------------------------------------------|

    Repeat back to Part A.



                                           Five-String Bass

    Intro

   Q       E   E   E   E   E   E
G |--------------------------------|
D |------------3-------4-------5---|
A |--------------------------------|
E |--------1-------2-------3-------|
B |--------------------------------|

    Part A (2x)

   E   S S E   E   E   E   E   E    E   S S E   E   E   E   E   E
G |--------------------------------|--------------------------------|
D |----4-4---------7---------------|--------------------------------|
A |--------------------------------|----7-7-------------4-------4---|
E |2-----------4-------5-------4---|--------------------------------|
B |--------------------------------|5-----------3---2---------------|

   E   S S E   E   E   E   E   E    E   E   E   E   E   E   E   E
G |--------------------------------|----------------2---2---1-------|
D |----4-4-------------------------|--------3-----------------------|
A |--------------------5-------5---|4---4-------4---0---------------|
E |2-------------------------------|----------------------------4---|
B |------------5---3---------------|2-------------------------------|

    Part B

   S S S S E   S S E   E   Q        S S S S E   S S E   E   Q
G |--------------------------------|--------------------------------|
D |--------------------------------|--------------------------------|
A |2-2-2-2-2-------1---------------|4-4-4-4-4-------3---------------|
E |--------------2-----2-----------|--------------4-----4-----------|
B |------------2-------------------|------------4-------------------|

   S S S S E   S S E   E   Q        E   E   E   E   E   E   E   E
G |--------------------------------|--------------------------------|
D |--------------------------------|----8-------8-------------------|
A |6-6-6-6-6-------5---------------|--------------------6-------6---|
E |--------------6-----6-----------|6-------------------------------|
B |------------6-------------------|----------------4---------------|

    Part C (3x)

   E   S S E   S S E   S S E   S S  E   S S E   S S E   S S E   S S
G |--------------------------------|--------------------------------|
D |----6-6-----6-6-----------------|--------------------------------|
A |--------------------6-6-----6-6-|----4-4-----4-4-----4-4-----4-4-|
E |4-------------------------------|--------------------------------|
B |----------------4---------------|2---------------2---------------|

    Part D

   E   S S E   S S E   S S E   S S  E   E   E   E   E   E   E   E  
G |--------------------------------|--------------------------------|
D |----6-6-----6-6-----------------|----6-------3-------4-------5---|
A |--------------------4-4-----4-4-|--------------------------------|
E |4-------------------------------|4-------1-------2-------3-------|
B |----------------2---------------|--------------------------------|

Login or Register to remove this ad.