Ads

Oakvale Theme (Fable) Guitar Tab

Submitted: Oct 30, 2013 by laoise

4.8
Average: 4.8 (5 votes)
Download | Listen
Game: Fable
Composer(s): Russel Shaw
Style: Arrangement, Fingerstyle, Natural harmonics

Click here for a video example.

AutoScroll: Slow | Medium | Fast
Oakvale Theme - Fable

All credit goes to 'JamesDonkeySF' for his arrangement, I just tabbed it out

Here's a link to his video:
http://www.youtube.com/watch?v=B8iHANghSH0


(Capo 2)

     E  E  E  E  E  E     E  E  E  E  E  E     E  E  S S E  E  E   
E||-----------------0--|--1--------0--------|--------0-1-0--------|
B||--------0--1--------|--------3-----------|--3---------------1--|
G||--2-----------------|--------------------|--------2---------0--|
D||--------2-----------|-----------2--------|--0--3---------2-----|
A||--0--3-----------0--|-----0--3--------2--|------------3--------|
E||-----------0--3-----|--1-----------3-----|---------------------|


  E  E  E  E  E  E     E  E  E  E  E  E     E  E  E  E  E  E   
--------1--0--------|-----------------0--|--1--------0--------|
--3--------------0--|--------0--1--------|--------3-----------|
--------2-----1-----|--2-----------------|--------------------|
--0--3-----2--------|--------2-----------|-----------2--------|
--------------------|--0--3-----------0--|-----0--3--------2--|
--------------------|-----------0--3-----|--1-----------3-----|


  E  E  S S E  E  E     E  E  E  E  E  E     E.  S S S Q    S S  
--------0-1-0--------|--------1--0--------|---------------------|
--3---------------1--|--3--------------0--|---------------------|
--------2---------0--|--------2-----1-----|------------2----0-2-|
--0--3---------2-----|--0--3-----2--------|----------2----------|
------------3--------|--------------------|--0---2-3------------|
---------------------|--------------------|---------------------|


  Q    E  S S S S E     E  E  S S E  E  E     E  E  E  E  E  E   
---------------------|--------0-1-0--------|--------5--4--------|
--0------------------|--3---------------1--|--3--------------0--|
-------0-------------|--------2---------0--|--------2-----1-----|
--2-------2-0-2-3-2--|-----3---------2-----|-----3-----2--------|
---------------------|------------3--------|--------------------|
--0-------0----------|---------------------|--------------------|


  E  E  E  E  E  E     E  E  E  E  E  E     H.            
--1-----------------|--0-----------------|---------------|
-----------3--------|-----------1--------|--0------------|
--------------------|--------------------|---------------|
--3--3--3--3--3--3--|--3--3--3--3--3--3--|--2------------|
--------------------|--------------------|---------------|
--------------------|--------------------|---------------|


     NH                                                            
     Q.     S S S S E     E  E  E  E  S S E     E  E  E  E  E  E   
--<>12-----------------|----------------0-1--|--------------------|
-----------------------|-----1--1-----3------|-----3--3-----------|
----------------1------|-----2--2-----2------|-----2--2-----1--1--|
------------2-3---3-2--|---------------------|-----------2--2--2--|
-----------------------|--0------------------|--------------------|
-----------------------|-----------0---------|--1-----------------|


  E  E  E  E  E  E     S  S S  S S  S S  S S  S E     E  E  E  E  E  E   
--0--------0--------|--0h-1-0h-1-0h-1-0h-1-0h-1-0--|-----------------0--|
--------------------|------------------------------|--------0--1--------|
--------------------|------------------------------|--2-----------------|
-----2-----2--3--0--|-------0----------------------|--------2-----------|
--0-----3-----------|------------2---------2-------|--0--3-----------0--|
--------------------|--1--------------0---------4--|-----------0--3-----|


  E  E  E  E  E  E     E  E  E  E  E  E     E  E  E  E  E  E   
--1--------0--------|--------------------|-----------0--------|
--------3-----------|--3--------1--------|--3--------------0--|
--------------------|--------2--------0--|--------2-----1-----|
-----------2--------|--0--3--------2-----|--0--3-----2--------|
-----0--3--------2--|-----------3--------|--------------------|
--1-----------3-----|--------------------|--------------------|


  E  E  E  E  E  E     E  E  E  E  E  E     E  E  E  E  E  E   
--------------------|--------------------|--------------------|
-----------1--------|--0-----------------|--3--------1--------|
--2-----------------|-----------1--------|--------2--------0--|
--------2--2--------|--------0-----------|--0--3--------2-----|
--0--3-----------2--|-----0-----------2--|-----------3--------|
--------------3-----|--1--------0--4-----|--------------------|

         
  E  E  E  E  E  E     Q    H          
--5-----------------|--4-------------||
-----------------0--|----------------||
--------2-----1-----|----------------||
--0--3-----2--------|----------------||
--------------------|----------------||
--------------------|----------------||




Duration Legend
---------------
W - whole
H - half
Q - quarter
E - 8th
S - 16th
T - 32nd
X - 64th
. - note dotted
|-n-|  - n-tuplets


Tablature Legend
----------------
L - tied note
x - dead note
g - grace note
(n) - ghost note
> - accentuded note
NH - natural harmonic
AH - artificial harmonic
TH - tapped harmonic
SH - semi harmonic
PH - pitch harmonic
h - hammer on
p - pull off
b - bend
br - bendRelease
pb - preBend
pbr - preBendRelease
brb - bendReleaseBend
\n/ - tremolo bar dip
\n - tremolo bar dive
-/n - tremolo bar Release up
/n\ - tremolo bar inverted dip
/n - tremolo bar return
-\n - tremolo bar Release down
S - shift slide
s - legato slide
/ -  slide into from below or out of upwards
\ -  slide into from above or out of downwards
~ - vibrato
W - wide vibrato
tr - trill
TP - tremolo picking
T - tapping
S - slap
P - pop
< - fade in
^ - brush up
v - brush down
Login or Register to remove this ad.

2 comments on Oakvale Theme

This is an excellent tab.

5

This is an excellent tab. Very cleverly done.

Wow that was great!

5

Wow that was great!