Ads

Music Box (Fable II) Guitar Tab

Submitted: May 29, 2011 by laoise

5
Average: 5 (1 vote)
Download | Listen
Game: Fable II
Composer(s): Russel Shaw
Style: Arrangement, Fingerstyle

AutoScroll: Slow | Medium | Fast
Music Box - Fable 2
Arranged By Laoise Earle                                

(Capo 1)


     Q    Q    Q       Q    Q    E  E     Q    Q    Q       Q    Q    Q     
E||-----------------|------------------|-----------------|-----------------|
B||-----------------|--0------------0--|--1--------------|--0--------------|
G||------------0----|------------2-----|-------0----2----|-----------------|
D||--2---------2----|------------2-----|------------2----|------------2----|
A||-------2---------|-------2----------|-----------------|-------2---------|
E||--0--------------|--0---------------|--0--------------|--0--------------|


  Q    Q    E  E     Q    Q    Q       E  E  E  E  Q       Q    Q    Q     
------------------|-----------------|-------------------|--0--------------|
------------------|--0--------------|--------------1----|-----------------|
--2---------2--2--|------------0----|-------------------|-----------------|
------------2-----|------------2----|--4--1-----1--2----|-------1----4----|
-------3----------|-------2---------|--------2----------|--2--------------|
--0---------------|--0--------------|--0----------------|-----------------|


  Q    Q    Q       Q    Q    E  E     Q    Q    Q       Q    Q    Q     
-----------------|--0------------0--|--1--------------|--0--------------|
-----------------|------------3-----|-----------------|-----------------|
--2--------------|------------------|-----------------|-----------------|
------------2----|------------2-----|------------2----|------------2----|
-------2---------|-------2----------|-------3---------|-------2---------|
--0--------------|--0---------------|--0--------------|--0--------------|


  Q    Q    E  E     Q    Q    Q       Q    Q    Q       Q    Q    Q      
------------------|-----------------|-----------------|--0--------------||
------------0--1--|--0--------------|------------0----|-----------------||
--2---------------|------------0----|------------0----|-----------------||
---------------2--|-----------------|--4---------2----|--2---------2----||
-------0----3-----|------------2----|-------2---------|-------2---------||
--0---------------|--0----3---------|--0--------------|--0--------------||




Duration Legend
---------------
W - whole
H - half
Q - quarter
E - 8th
S - 16th
T - 32nd
X - 64th
. - note dotted
Login or Register to remove this ad.