Mute City (F-Zero) Guitar Tab

Submitted: Dec 01, 2014 by ltm_1988

0
Download | Listen
Game: F-Zero
Composer(s): Yumiko Konki
Style: Arrangement, Fingerstyle

AutoScroll: Slow | Medium | Fast
Mute City
F-Zero
Yumiko Kanki
ltm_1988
11/29/2014

    E   E   E   E   E   E   E   E     E   E   E   E   E   E   E   E
E||-3---3---3---3---3---3---3---5---|-5---5---5---5---5---5---5---6---|
B||---------------------------------|---------------------------------|
G||---------------------------------|---------------------------------|
D||---------------------------------|-3-------------------------------|
A||-3-------------------------------|---------------------------------|
E||---------------------------------|---------------------------------|

    E   E   E   E   E   E   E   E     E   E   E   E   E   E   E   E
E||-6---6---6---6---6---6---6---5---|-5---5---5---5---5---5---5---6---|
B||---------------------------------|---------------------------------|
G||---------------------------------|---------------------------------|
D||---------------------------------|-3-------------------0-----------|
A||-6-------------------------------|-----------------------------4---|
E||---------------------------------|---------------------------------|

    E   E   E   E   E   E   E   E     E   E   E   E   E   E   E   E
E||-6---6---6---6---6---6---6---5---|-5---5---5---5---5---5---5---6---|
B||---------------------------------|---------------------------------|
G||---------------------------------|---------------------------------|
D||---------------------------------|-3-------------------------------|
A||-3-------------------------------|---------------------------------|
E||---------------------------------|---------------------------------|

    E   E   E   E   E   E   E   E     E   E   E   E   E   E   E   E
E||-6---6---6---6---6---6---6---5---|-5---5---5---5---5---5---5---3---|
B||---------------------------------|---------------------------------|
G||---------------------------------|---------------------------------|
D||---------------------------------|---------------------------------|
A||---------------------------------|-3-------------------3---3---1---|
E||-6-------------------------------|---------------------------------|

    E   E   E   E   E   E   E   E     E   E   E   E   E   E   E   E
E||-3---3---3---3---3---3---3---5---|-5---5---5---5---5---5---5---6---|
B||---------------------------------|---------------------------------|
G||*--------------------------------|---------------------------------|
D||*--------------------------------|-3-------------------------------|
A||-3-------------------------------|---------------------------------|
E||---------------------------------|---------------------------------|

    E   E   E   E   E   E   E   E     E   E   E   E   E   E   E   E
E||-6---6---6---6---6---6---6---5---|-5---5---5---5---5---5---5---6---|
B||---------------------------------|---------------------------------|
G||---------------------------------|---------------------------------|
D||---------------------------------|-3-------------------0-----------|
A||-6-------------------------------|-----------------------------4---|
E||---------------------------------|---------------------------------|

    E   E   E   E   E   E   E   E     E   E   E   E   E   E   E   E
E||-6---6---6---6---6---6---6---5---|-5---5---5---5---5---5---5---6---|
B||---------------------------------|---------------------------------|
G||---------------------------------|---------------------------------|
D||---------------------------------|-3-------------------------------|
A||-3-------------------------------|---------------------------------|
E||---------------------------------|---------------------------------|

    E   E   E   E   E   E   E   E     E   E   E   E   E   E   E   E
E||-6---6---6---6---6---6---6---5---|-5---5---5---5---5---5---5---5---|
B||---------------------------------|---------------------------------|
G||---------------------------------|---------------------------------|
D||---------------------------------|---------------------------------|
A||---------------------------------|-3-------------------3---3-------|
E||-6-------------------------------|-----------------------------6---|

    E   E   E   E   E   E   E   E     E   E   E   E   E   E   E   E
E||-1-------------------------------|---------------------------------|
B||-------------4-----------3-------|-1-----------3-----------4-------|
G||---------------------------------|---------------------------------|
D||---------------------0-----------|---------------------------------|
A||-3---3---3---3---3-------1-------|---------------------------------|
E||-----------------------------3---|-----3---3---3---3---3---3---3---|

    E   E   E   E   E   E   E   E     E   E   E   E   E   E   S S S S
E||-1-------------------------------|-------------------------------1-|
B||-------------4-----------3-------|-1-----------------------1-3-4---|
G||---------------------------------|---------------------------------|
D||---------------------0-----------|---------------------------------|
A||-3---3---3---3---3-------1-------|---------------------------------|
E||-----------------------------3---|-----3---3---3---3---3---3---3---|

    E   E   E   E   E   E   E   E     E   E   E   E   E   E   E   E
E||-3-----------------------6-------|-4-----------3-------------------|
B||-------------6-------------------|-------------------------6-------|
G||---------------------------------|---------------------------------|
D||---------------------------------|---------------------------------|
A||-4---4---4---4---4---6---4-------|---------------------------------|
E||-----------------------------4---|-----4---4---4---4---4---4---4---|

    E   E   E   E   E   E   E   E     E   E   E   E   E   E   E   E
E||-3-------------------------------|---------------------------------|
B||-------------6-----------4-------|-3-------------------------------|
G||---------------------------------|-------------5-----------3-------|
D||---------------------------------|---------------------------------|
A||-4---4---4---4---4---6---4-------|---------------------------------|
E||-----------------------------4---|-----4---4---4---4---4---4---4---|

    E   E   E   E   E   E   E   E     E   E   E   E   E   E   E   E
E||-1-------------------------------|---------------------------------|
B||-------------4-----------3-------|-1-----------3-----------4-------|
G||---------------------------------|---------------------------------|
D||---------------------0-----------|---------------------------------|
A||-3---3---3---3---3-------1-------|---------------------------------|
E||-----------------------------3---|-----3---3---3---3---3---3---3---|

    E   E   E   E   E   E   E   E     E   E   E   E   E   E   S S S S
E||-1-------------------------------|-------------------------------1-|
B||-------------4-----------3-------|-1-----------------------1-3-4---|
G||---------------------------------|---------------------------------|
D||---------------------0-----------|---------------------------------|
A||-3---3---3---3---3-------1-------|---------------------------------|
E||-----------------------------3---|-----3---3---3---3---3---3---3---|

    E   E   E   E   E   E   E   E     E   E   E   E   E   E   E   E
E||-3-----------------------6-------|-4-----------3-------------------|
B||-------------6-------------------|-------------------------6-------|
G||---------------------------------|---------------------------------|
D||---------------------------------|---------------------------------|
A||-4---4---4---4---4---6---4-------|---------------------------------|
E||-----------------------------4---|-----4---4---4---4---4---4---4---|

    E   E   E   E   E   E   E   E     E   E   E   E   E   E   E   E
E||-3-------------------------------|---------------------------------|
B||-------------6-----------4-------|-3-------------------------------|
G||---------------------------------|-------------5-----------3-------|
D||---------------------------------|---------------------------------|
A||-4---4---4---4---4---6---4-------|---------------------------------|
E||-----------------------------4---|-----4---4---4---4---4---4---4---|

    E   E   E   E   E   E   E   E     E   E   E   E   E   E   E   E
E||---------------------------------|---------------------------------|
B||---------------------------------|-1-------------------------------|
G||-2-------------------0---2---3---|---------------------0---2---3---|
D||---------------------0-----------|---------------------------------|
A||-3---3---3---3---3-------1-------|---------------------------------|
E||-----------------------------3---|-----3---3---3---3---3---3---3---|

    E   E   E   E   E   E   E   E     E   E   E   E   E   E   E   E
E||---------------------------------|---------------------------------|
B||-3---------------------------3---|-4-----------------------3---4---|
G||---------------------2---3-------|---------------------3-----------|
D||---------------------0-----------|---------------------------------|
A||-3---3---3---3---3-------1-------|---------------------------------|
E||-----------------------------3---|-----3---3---3---3---3---3---3---|

    E   E   E   E   E   E   E   E     E   E   E   E   E   E   E   E
E||-1-------------------------------|---------------------------------|
B||---------------------------------|---------------------------------|
G||---------------------------------|-----------------------------1---|
D||-----------------------------1---|-3-----------------------3-------|
A||-2---2---2---2---2-------4-------|-----2---2---2---2---4---2-------|
E||---------------------4-------2---|-----------------------------2---|

    E   E   E   E   E   E   E   E     E   E   E   E   E   E   E   E
E||---------------------------------|-1---------------------------1---|
B||-2---------------------------2---|-------------------------2-------|
G||-------------------------1-------|---------------------1-----------|
D||---------------------3-----------|---------------------------------|
A||-----2---2---2---2---4---2-------|-----2---2---2---2---4---2-------|
E||-----------------------------2---|-----------------------------2---|

    E   E   E   E   E   E   E   E     E   E   E   E   E   E   E   E
E||-2-------1-----------------------|---------------------------------|
B||-------------4---2-------0---2---|---------------------------------|
G||---------------------------------|-3-------1-----------------------|
D||---------------------------------|-------------4---3-------1-------|
A||-1---1---1---1---2---2---2---2---|-2---2---2---2---2---2---2---4---|
E||---------------------------------|---------------------------------|

    E   E   E   E   E   E   E   E     E   E   E   E   E   E   E   E
E||---------------------------------|---------------------------------|
B||---------------------------------|-4-------------------------------|
G||---------------------------------|---------------------------------|
D||-1-------3---4---1-------3---4---|---------------------------------|
A||-----------------4---4---4---4---|-2---2---2---2---2---2---2---2---|
E||-2---2---2---2-------------------|---------------------------------|

                     | - - 6 - - |
    E   E   E   E    E E E   E E E  x3 W 
E||------------------2-0------------||-3-
B||----------------------3---2-0----||-4-
G||------------------------------2-*||-5-
D||--------------------------------*||-5-
A||-2---2---2---2----3---3---3---3--||-3-
E||---------------------------------||---
Login or Register to remove this ad.