Ads

Theme of Super Arrow (F-Zero GX) Guitar Tab

Submitted: Apr 11, 2016 by Kyle8497 (Last updated: Apr 13, 2016)

0
Download | Listen
Game: F-Zero GX
Composer(s): Hidenori Shoji, Daiki Kasho
Style: 2 or more instruments, Transcription
Series: F-Zero

AutoScroll: Slow | Medium | Fast
Song: Theme of Super Arrow
Game: F-Zero: GX
Composer(s): Hidenori Shoji, Daiki Kasho
Tab creator: Kyle8497
Date created: 4/3/16

Legend:

x - Palm mute the previous note.
\ - Slide down (to).
/ - Slide up (to).
h - Hammer-on.
p - Pull-off.
~ - Sustain/finger vibrato.

-------------------------------------------





Lead Guitar

Intro
e|-----------------------------------------|
B|-----------------------------------------|
G|-7---7-7---7-7---7-7---------------------|
D|-----------------------------------------|
A|-----------------------------------------|
E|-----------------------------------------|

e|-----------------------------------------|
B|-----------------------------------------|
G|-7-7---7-7---7-7---7-7-------------------|
D|-----------------------------------------| x7
A|-----------------------------------------|
E|-----------------------------------------|



Verse
e|-----------------------------------------|
B|-----------------------------------------|
G|-7-7---7-7---7-7---7-7-------------------|
D|-----------------------------------------| x8
A|-----------------------------------------|
E|-----------------------------------------|



Chorus
e|-----------------------------------------|
B|-----------------------------------------|
G|-7-7---7-7---7-7---7-7-------------------|
D|-----------------------------------------| x8
A|-----------------------------------------|
E|-----------------------------------------|





Rhythm Guitar

Intro (Palm mute all except full power chords)
e|---------------------------------|---------------------------------|
B|---------------------------------|---------------------------------|
G|---------------------------------|---------------------------------|
D|---------------------------------|---------------------------------|
A|---------------------------------|-7-7-7-7-7-7-7-7-6-6-6-6-6-6-6-6-|
E|-3-3-3-3-3-3-3-3-3-3-3-3-3-3-3-3-|---------------------------------|

e|---------------------------------|---------------------------------|
B|---------------------------------|---------------------------------|
G|---------------------------------|-----------------------8-8-8-8-8-|
D|-5-5-----------------------------|-9-9-9-9-9-9-9-9-8-8-8-8-8-8-8-8-|
A|-5-5-----------------------------|-7-7-7-7-7-7-7-7-6-6-6-6-6-6-6-6-|
E|-3-3-3-3-3-3-3-3-3-3-3-3-3-3-3-3-|---------------------------------|

e|---------------------------------|
B|---------------------------------|
G|---------------------------------|
D|-5-5-5-5-5-5-5-5-5-5-5-5-5-5-5-5-| x2
A|-5-5-5-5-5-5-5-5-5-5-5-5-5-5-5-5-|
E|-3-3-3-3-3-3-3-3-3-3-3-3-3-3-3-3-|

(After x1)                           (After x2)
e|---------------------------------| |---------------------------------|
B|---------------------------------| |---------------------------------|
G|---------------------------------| |-9-9-9-9-9-9-9-9-8-8-8-8-8-8-8-8-|
D|-3-3-3-3-3-3-3-3-2-2-2-2-2-2-2-2-| |-9-9-9-9-9-9-9-9-8-8-8-8-8-8-8-8-|
A|-3-3-3-3-3-3-3-3-2-2-2-2-2-2-2-2-| |-7-7-7-7-7-7-7-7-6-6-6-6-6-6-6-6-|
E|-1-1-1-1-1-1-1-1-0-0-0-0-0-0-0-0-| |---------------------------------|



Verse (Palm mute all except full power chords)
e|---------------------------------|---------------------------------|
B|---------------------------------|---------------------------------|
G|---------------------------------|---------------------------------|
D|---------------------------------|-9-9-9-9-9-9-9-9-8-8-8-8-8-8-8-8-| x2
A|-5-5-5-5-5-5-5-5-5-5-5-5-5-5-5-5-|-7-7-7-7-7-7-7-7-6-6-6-6-6-6-6-6-|
E|-3-3-3-3-3-3-3-3-3-3-3-3-3-3-3-3-|---------------------------------|

e|---------------------------------|
B|---------------------------------|
G|---------------------------------|
D|-5-5-----------------------------| x2
A|-5-5-5-5-5-5-5-5-5-5-5-5-5-5-5-5-|
E|-3-3-3-3-3-3-3-3-3-3-3-3-3-3-3-3-|

(After x1)                           (After x2)
e|---------------------------------| |---------------------------------|
B|---------------------------------| |---------------------------------|
G|---------------------------------| |-----------------------8-8-8-8-8-|
D|-3-3-------------2-2-------------| |-9-9-9-9-9-9-9-9-8-8-8-8-8-8-8-8-|
A|-3-3-3-3-3-3-3-3-2-2-2-2-2-2-2-2-| |-7-7-7-7-7-7-7-7-6-6-6-6-6-6-6-6-|
E|-1-1-1-1-1-1-1-1-0-0-0-0-0-0-0-0-| |---------------------------------|



Chorus
e|---------------------------------|
B|---------------------------------|
G|---------------------------------|
D|-5-5-5-5-5-5-5-5-5-5-5-5-5-5-5-5-| x4
A|-5-5-5-5-5-5-5-5-5-5-5-5-5-5-5-5-|
E|-3-3-3-3-3-3-3-3-3-3-3-3-3-3-3-3-|

(After x1 and x3)                    (After x2 and x4)
e|---------------------------------| |---------------------------------|
B|---------------------------------| |---------------------------------|
G|---------------------------------| |-9-9-9-9-9-9-9-9-8-8-8-8-8-8-8-8-|
D|-3-3-3-3-3-3-3-3-2-2-2-2-2-2-2-2-| |-9-9-9-9-9-9-9-9-8-8-8-8-8-8-8-8-|
A|-3-3-3-3-3-3-3-3-2-2-2-2-2-2-2-2-| |-7-7-7-7-7-7-7-7-6-6-6-6-6-6-6-6-|
E|-1-1-1-1-1-1-1-1-0-0-0-0-0-0-0-0-| |---------------------------------|
Login or Register to remove this ad.