Ads

Theme of Phoenix (F-Zero GX) Guitar Tab

Submitted: Aug 06, 2016 by Kyle8497 (Last updated: Aug 06, 2016)

0
Download | Listen
Game: F-Zero GX
Composer(s): Hidenori Shoji, Daiki Kasho
Style: 2 or more instruments, Transcription
Series: F-Zero

AutoScroll: Slow | Medium | Fast
Song: Theme of Phoenix
Game: F-Zero GX
Composer(s): Hidenori Shoji, Daiki Kasho
Tab creator: Kyle8497
Date created: 7/29/16


Legend:

^ - Bend string.
x - Palm mute the previous note.
\ - Slide down (to).
/ - Slide up (to).
h - Hammer-on.
p - Pull-off.
~ - Sustain/finger vibrato.

-------------------------------------------





Lead Guitar

Intro
e|-----------------------------------------|
B|--------------11~\----9^-----------------|
G|-8~/-------------------------------------|
D|-----------------------------------------|
A|-----------------------------------------|
E|-----------------------------------------|



Verse
e|-11~---------11~-------------------------|
B|-----------------------------------------|
G|-----------------------------------------|
D|-----------------------------------------|
A|-----------------------------------------|
E|-----------------------------------------|



Chorus
e|---------------|----------------|--------------------------------|
B|-4-4-4-4-------|-7--7-7-7-7-7-7-|-7/9-7-7-7-7-7-7-4------2/4-2/4-|
G|-3-3-3-3-6-6-6-|-6--6-6-6-6-6-6-|-6/8-6-6-6-6-6-6-3~-3-1---------|
D|-1-1-1-1-6-6-6-|-4--4-4-4-4-4-4-|-4/6-4-4-4-4-4-4-1~-------------| x3
A|---------4-4-4-|----------------|--------------------------------|
E|---------------|----------------|--------------------------------|



Outro
e|--------------------|--------------------|-11---9--------------|
B|-9^~----------------|-11~----------------|--------12-11~-------|
G|--------------------|--------------------|---------------------|
D|--------------------|--------------------|---------------------|
A|--------------------|--------------------|---------------------|
E|--------------------|--------------------|---------------------|

e|--------------------|--------------------|---------------------|
B|--------------------|--------------------|-8h9^----------------|
G|-4~-3~--------------|-8~-----------------|---------------------|
D|--------------------|--------------------|---------------------|
A|--------------------|--------------------|---------------------|
E|--------------------|--------------------|---------------------|

e|--------------------|
b|-11~----9h11p9h11~--|
G|--------------------|
D|--------------------|
A|--------------------|
E|--------------------|




Rhythm Guitar (Drop D tuning)

Intro
e|-------1-----------1----|       |-------1--------|
B|-----4---4-------4---4~-|       |-----4---4------|
G|---3-------3---3--------|       |---3-------3----|
D|------------------------| x3    |----------------|
A|-------------2----------|       |-------------2~-|
D|-1----------------------|       |-1--------------|



Verse
e|----------------|        |---------------------------|
B|----------------|        |---------------------------|
G|----------------|        |---------------------------|
D|-8-8-6-6--11----| x16    |-8-8---8-8-8-----8-8-8-8-8-|
A|-6-6-4-4--9-----|        |-6-6---6-6-6-----6-6-6-6-6-|
D|-8-8-6-6--11----|        |-8-8---8-8-8-----8-8-8-8-8-|



Chorus
e|------------------------------------------------|
B|------------------------------------------------| ____
G|------------------------------------------------|     |
D|-8-8-8-8-6-6-6-11--11-11-11-11-11-11-11-9-9-9-9-|     |
A|-6-6-6-6-4-4-4-9---9--9--9--9--9--9--9--9-9-9-9-|     |
D|-8-8-8-8-6-6-6-11--11-11-11-11-11-11-11-9-9-9-9-|     |
                                                        | x4
e|------------------------------------------------|     |
B|------------------------------------------------|     |
G|------------------------------------------------|     |
D|-9-9-9-8--8-8-8-8-8-8-8-------------------------| ____|
A|-9-9-9-6--6-6-6-6-6-6-6-------------------------|
D|-9-9-9-8--8-8-8-8-8-8-8-------------------------|



Outro
e|-------1-----------1----|
B|-----4---4-------4---4~-|
G|---3-------3---3--------|
D|------------------------| x20
A|-------------2----------|
D|-1----------------------|
Login or Register to remove this ad.