Ads

Theme of Mrs. Arrow (F-Zero GX) Guitar Tab

Submitted: Jul 28, 2016 by Kyle8497

0
Download | Listen
Game: F-Zero GX
Composer(s): Hidenori Shoji, Daiki Kasho
Style: 2 or more instruments, Transcription
Series: F-Zero

AutoScroll: Slow | Medium | Fast
Song: Theme of Mrs. Arrow
Game: F-Zero GX
Composer(s): Hidenori Shoji, Daiki Kasho
Tab creator: Kyle8497
Date created: 7/10/16


Legend:

^ - Bend string.
x - Palm mute the previous note.
\ - Slide down (to).
/ - Slide up (to).
h - Hammer-on.
p - Pull-off.
~ - Sustain/finger vibrato.

-------------------------------------------





Lead Synth

Intro
e|-13-----------12----13-|
B|--------13-------------|
G|-----------------------|
D|-----15----15----15----| x8
A|-----------------------|
E|-----------------------|

(After 1x, 3x, 5x, and 7x)     (After 2x, 4x, 6x, and 8x)
e|-----15----17----12----|     |-----15----17----18----|
B|-----------------------|     |-----------------------|
G|-----------------------|     |-----------------------|
D|--15----15----15----15-|     |--15----15----15----15-|
A|-----------------------|     |-----------------------|
E|-----------------------|     |-----------------------|



Chorus
e|-13-----------12----13-|
B|--------13-------------|
G|-----------------------|
D|-----15----15----15----| x16
A|-----------------------|
E|-----------------------|

(After every odd # of times)     (After every even # of times)
e|-----15----17----12----|       |-----15----17----18----|
B|-----------------------|       |-----------------------|
G|-----------------------|       |-----------------------|
D|--15----15----15----15-|       |--15----15----15----15-|
A|-----------------------|       |-----------------------|
E|-----------------------|       |-----------------------|





Lead Guitar

Verse
e|-----------------------------------------|
B|-----------------------------------------|
G|-11^-------------------------------------|
D|-----------------------------------------|
A|-----------------------------------------|
E|-----------------------------------------|





Rhythm Guitar

Intro
e|-----------------|
B|-----------------|
G|-----------------|     (These measures are
D|-----------------| x8   mainly palm-muted)
A|-3-3-3-3-3-3-3-3-|
E|-1-1-1-1-1-1-1-1-|

e|---------------------------------|
B|---------------------------------| ____
G|-------------2-2-3-3-3-3-3-3-2-2-|     |
D|-------------0-0-1-1-1-1-1-1-0-0-|     |
A|-3-3-3-3-3-3---------------------|     |
E|-1-1-1-1-1-1---------------------|     |
					 | x2
e|---------------------------------|     |
B|---------------------------------|     |
G|-------------5-5-5-5-5-5-5-5-----|     |
D|-------------3-3-3-3-3-3-3-3-----| ____|
A|-5-5-5-5-5-5---------------------|
E|-3-3-3-3-3-3---------------------|



Verse
e|---------------------------------|
B|---------------------------------|
G|---------------------------------|
D|------------3-3-3-3-3------------| x3
A|-3-3-3-3-3--1-1-1-1-1--5-5-5-5-5-|
E|-1-1-1-1-1-------------3-3-3-3-3-|

(After x1 and 2x)    (After x3)
e|-----------|       |-------------------------|
B|-----------|       |-------------------------|
G|-----------|       |---------10~---------10~-|
D|-5-5-5-5-5-|       |-------------------------|
A|-3-3-3-3-3-|       |-8-8-8-8-----8-8-8-8-----|
E|-----------|       |-------------------------|

e|------------------------------------------|
B|------------------------------------------|
G|------------------------------------------|
D|------------3-3-3-2-2-2-2-----------2--3~-|
A|-3-3-3-3-3--1-1-1-0-0-0-0-5-5-5-5-5-0--1~-|
E|-1-1-1-1-1----------------3-3-3-3-3-------|



Bridge
e|-----------------------------------------|
B|-----------------------------------------|
G|-----------------------------------------|
D|-----------------------------------------|
A|-3-3-3-3-3-3-3-3-3-3-3-3-3-3--xxxx-------|
E|-1-1-1-1-1-1-1-1-1-1-1-1-1-1--xxxx-------|



Chorus
e|---------------------------------|
B|---------------------------------| ____
G|-------------2-2-3-3-3-3-3-3-2-2-|     |
D|-------------0-0-1-1-1-1-1-1-0-0-|     |
A|-3-3-3-3-3-3---------------------|     |
E|-1-1-1-1-1-1---------------------|     |
					 | x8
e|---------------------------------|     |
B|---------------------------------|     |
G|-----------------5-5-5-5-5-5-5-5-|     |
D|-----------------3-3-3-3-3-3-3-3-| ____|
A|-5-5-5-5-5-5-5-5-----------------|
E|-3-3-3-3-3-3-3-3-----------------|
Login or Register to remove this ad.