Ads

Theme of Leon (F-Zero GX) Guitar Tab

Submitted: Mar 26, 2016 by Kyle8497 (Last updated: Apr 15, 2016)

0
Download | Listen
Game: F-Zero GX
Composer(s): Hidenori Shoji, Daiki Kasho
Style: 2 or more instruments, Transcription
Series: F-Zero

AutoScroll: Slow | Medium | Fast
Song: Theme of Leon
Game: F-Zero: GX
Composer(s): Hidenori Shoji, Daiki Kasho
Tab creator: Kyle8497
Date created: 3/21/16


Legend:

x - Palm mute the previous note.
\ - Slide down (to).
/ - Slide up (to).
h - Hammer-on.
p - Pull-off.
~ - Sustain/finger vibrato.

-------------------------------------------





Lead Guitar

Verse
e|-----------------------------------------|
B|-6-5-3-6-5-3-6---5~\---------------------|
G|-----------------------------------------|
D|-----------------------------------------|
A|-----------------------------------------|
E|-----------------------------------------|

e|-----------------------------------------|
B|-6-5-3-6-5-3---5/8--5-5~/10\1------------|
G|-----------------------------------------|
D|-----------------------------------------|
A|-----------------------------------------|
E|-----------------------------------------|

e|-----------------------------------------|
B|-6-5-3-6-5-3-6---5-----------------------|
G|-------------------5~\-------------------|
D|-----------------------------------------|
A|-----------------------------------------|
E|-----------------------------------------|

e|-----------------------------------------|
B|-6-5-3-6-5-3-5---------------------------|
G|-----------------------------------------|
D|-----------------------------------------|
A|-----------------------------------------|
E|-----------------------------------------|



Pre-Chorus
e|----------------------------------------------------------|
B|----------------------------------------------------------|
G|-7-7-7-7-7-7-7-7-9-9-9-10--10--12-12-14-14-14-14-14-14-14-|
D|----------------------------------------------------------|  x2
A|-5-5-5-5-5-5-5-5-7-7-7--8---8--10-10-12-12-12-12-12-12-12-|
E|----------------------------------------------------------|

(After x1)                    (After x2)
e|-----------------------|    |--------------------------------------------------|
B|-----------------------|    |--------------------------------------------------|
G|-9-9-9-10-10-10-12-12--|    |-18-18-18-18-18-18-18-18-18-18-18-18-18-18-18-18\-|
D|-----------------------|    |--------------------------------------------------|
A|-7-7-7--8--8--8-10-10--|    |-16-16-16-16-16-16-16-16-16-16-16-16-16-16-16-16\-|
E|-----------------------|    |--------------------------------------------------|



Chorus
e|-----------------------------------------|
B|-----------------------------------------|
G|-10\9/10~\---10~\9/10~\------------------|
D|-----------------------------------------| x7
A|--8\7/8~\-----8~\7/8~\-------------------|
E|-----------------------------------------|

(After 4x and 6x)      (After x7)
e|----8/10-------|     |----------------|
B|-10------10-8--|     |----------------|
G|---------------|     |----------------|
D|---------------|     |-7~\------------|
A|---------------|     |-5~\------------|
E|---------------|     |----------------|





Rhythm/Bass Guitar

Intro
e|-----------------------------------------|
B|-----------------------------------------|
G|-----------------------------------------|
D|-------------3-----5--5------------------| x3
A|-2-3-3-3-3-3-1-----3--3------------------|
E|-0-1-1-1-1-1---x-x-----------------------|

e|---------------------------------------------------|
B|---------------------------------------------------|
G|---------------------------------------------------|
D|-7-7-7-----5-5-5-----3-3-3-2-2-x-x-x-x-x-2-x-x-x-x-|
A|-5-5-5-5---3-3-3-3---1-1-1-0---x-x-x-x-x-0-x-x-x-x-|
E|-------3---------1---------------------------------|



Verse
e|-----------------------------------------|
B|-----------------------------------------|
G|-----------------------------------------|
D|-------------3-----5--5------------------| x4
A|-------------1-----3--3------------------|
E|-0-0-0-0-0-0---x-x-----------------------|



Pre-Chorus
e|---------------------------------------------------------------|
B|---------------------------------------------------------------|
G|----------------------5--5-5-5---------------------------------|
D|-7-7-7-7-7-7-7-7-5--5-3--3-3-3-3-3-3-3-3-3-3-3-5-5-5-5-5-5-5-5-| x2
A|-5-5-5-5-5-5-5-5-3--3----------1-1-1-1-1-1-1-1-3-3-3-3-3-3-3-3-|
E|---------------------------------------------------------------|



Chorus
e|-----------------------------------------|
B|-----------------------------------------|
G|-----------------------------------------|
D|-------------3-----5--5------------------| x7
A|-2-3-3-3-3-3-1-----3--3------------------|
E|-0-1-1-1-1-1---x-x-----------------------|

e|-----------------------------------------|
B|-----------------------------------------|
G|-----------------------------------------|
D|-7-7-7-----5-5-5-----3-3-3-2-x-x-x-x-x-x-|
A|-5-5-5-5---3-3-3-3---1-1-1-0-x-x-x-x-x-x-|
E|-------3---------1-----------------------|
Login or Register to remove this ad.