Ads

Be Survivor (Eyeshield 21) Guitar Tab

Submitted: Nov 01, 2014 by cyx77 (Last updated: Nov 04, 2014)

5
Average: 5 (7 votes)
Download | Listen
Game: Eyeshield 21
Composer(s): Kow Otani
Style: Arrangement, Fingerstyle

Click here for a video example.

AutoScroll: Slow | Medium | Fast
*Ties have been removed from this text version to avoid the clutter limitations of GP5.
Ties are included in the .GP5 file in the zip folder. I also recommend a BPM a bit lower than the recording.
198BPM is manageable but something around 170BPM might be a bit more reasonable.* 


**This is a short version of the track**


 				 Be Survivor  - ZZ
Standard Tuning
Tempo = 198 BPM


     Q    E  E  Q    E  E     E  E  Q    H           Q    E  E  Q    E  E   
E||--0----0-----0-------0--|--------0----0--------|--0----0-----0-------0--|
B||--0-------3--0----3--1--|-----3----------------|--3-------3--3----3--0--|
G||--0----------0-------0--|----------------------|--2----------2-------0--|
D||------------------------|----------------------|--0----------0----------|
A||---------------------3--|----------------------|------------------------|
E||--0----------0----------|----------------------|---------------------3--|


  E  E  Q    H           Q    E  E  Q    E  E     E  E  Q    H         
--------3----0--------|--0----0-----0-------0--|--------0----0--------|
-----3-------0--------|--0-------3--0----3--1--|-----3----------------|
-------------0--------|--0----------0-------0--|----------------------|
----------------------|------------------------|----------------------|
----------------------|---------------------3--|----------------------|
-------------3--------|--0----------0----------|----------------------|


  Q    E  E  Q    E  E     E  E  Q    H           E  E  E  E  E  E  E  E   
--0----0-----0-------0--|--------0----0--------|--0--------2--3--2--------|
--3-------3--3----3--3--|-----3----------------|--0-----------------3-----|
--2----------2-------2--|----------------------|--0-----0--------------2--|
--0----------0-------0--|----------------------|-----2--------------------|
------------------------|----------------------|-----------------------3--|
------------------------|----------------------|--0-----------------------|


  Q.     Q.     Q       H        E  E  E  E     Q.     Q.     Q     
---------------------|-----------3--2--------|---------5------2----|
---------0------1----|--3--------------3--0--|---------0------0----|
---------0------0----|--2-----------------0--|---------0------0----|
---------------------|--0--------------------|---------------------|
---------3------0----|-----------------------|---------------------|
---------------------|--------------------3--|---------3-----------|


  E  E  E  E  E  E  E  E     Q.     Q.     Q       H        Q    Q     
--0--------2--3--2--------|---------------------|---------------------|
--0-----------------3-----|---------0------1----|--3-------------0----|
--0-----0--------------2--|---------0------0----|--2------------------|
-----2--------------------|---------------------|--0-------------0----|
-----------------------3--|---------3------0----|---------------------|
--0-----------------------|---------------------|---------------------|


  Q.     Q.     Q       E  E  E  E  E  E  E  E     Q.     Q.     Q     
--5------7------2----|--0--------2--3--2--------|---------------------|
--0------0-----------|--0-----------------3-----|---------0------1----|
--0------------------|--0-----0--------------2--|---------0------0----|
---------------------|-----2--------------------|---------------------|
---------------------|-----------------------3--|---------3------0----|
--3-------------2----|--0-----------------------|---------------------|


  H        E  E  E  E     Q.     Q.     Q       E  E  E  E  E  E  E  E   
-----------3--2--------|---------5------2----|--0--------2--3--2--------|
--3--------------3--0--|---------0------0----|--0-----------------3-----|
--2-----------------0--|---------0------0----|--0-----0--------------2--|
--0--------------------|---------------------|-----2--------------------|
-----------------------|---------------------|-----------------------3--|
--------------------3--|---------3-----------|--0-----------------------|


  Q.     Q.     Q       H        Q    Q       H        H         
---------------------|---------------------|--5--------7--------|
---------0------1----|--3-------------0----|--0--------0--------|
---------0------0----|--2------------------|--0-----------------|
---------------------|--0-------------0----|--------------------|
---------3------0----|---------------------|--------------------|
---------------------|---------------------|--3-----------------|


  E  E  E  E  E  E  E  E     E  E  E  E  E  E  Q       E  E  E  E  E  E  E  E   
--------------------------|-------------------------|--------------------------|
--------------0--------0--|-----0--------0----------|--0-----------0--0-----0--|
--------0-----------2-----|-----------2--------2----|--------2-----------2-----|
-----2-----2--------------|-------------------------|-----1-----1--------------|
--------------------------|-------------------------|--2-----------2-----------|
--0--------------0--------|--0-----0--------0-------|--------------------------|


  E  E  E  E  E  E  E  E     E  E  E  E  E  E  E  E   
--------------------------|--------------------------|
-----0--------0-----1-----|--0-----------0--0-----0--|
-----------2--------------|--------0-----------2-----|
--------------------------|-----2-----2--------------|
--2-----2--------2-----2--|--3-----------3-----------|
--------------------------|--------------------------|


  E  E  E  E  E  E  E  E     E  E  E  E  E  Q    E     E  E  E  E  E  E  Q     
--------------------------|-------------------------|-------------------------|
-----------0--------1--1--|--0--------0-------------|--0-----0-----0----------|
-----2-----------2--------|--------2--------2----2--|-----2-----2--------2----|
--------------------------|-----0-------------------|-----------------1-------|
--3-----3-----3-----------|-------------------------|-------------------------|
--------------------------|--3-----------3----------|--2-----------2----------|


  E  E  E  E  E  E  E  E     E  E  E  E  E  E  Q       E  E  E  E  Q    E  E   
--------------------------|-------------------------|-------------------------|
--------------0--0-----0--|-----0--------0----------|--0-----------0-------0--|
--------0-----------2-----|-----------2--------2----|--------2----------2-----|
-----2-----2--------------|-------------------------|-----1-------------------|
--------------------------|-------------------------|--2--------2-------------|
--0--------------0--------|--0-----0--------0-------|-------------------------|


  E  E  E  E  E  E  E  E     E  E  E  E  E  E  E  E     E  E  E  E  E  E  Q     
--------------------------|--------------------------|-------------------------|
-----0--0-----0-----1-----|--0-----------0--0-----0--|-----0--0-----0-----1----|
-----------2--------------|--------0-----------2-----|-----------2--------0----|
--------------------------|-----2-----2--------------|-----------------2-------|
--2-----2--------2-----2--|--3-----------3-----------|--3-----------3----------|
--------------------------|--------------------------|-------------------------|


  E  E  E  E  E  E  E  E     E  E  E  Q    Q.        Q.     H        E   
--------------------------|-----------------------|---------------------|
--0--------0--------------|--0--------0----1------|---------------------|
--------2--------2-----2--|--------2-------2------|--4------2-----------|
-----0--------------------|-----0-----------------|--4------2--------4--|
--------------------------|-----------------------|--2------0--------4--|
--3-----------3-----3-----|--2--------2-----------|------------------2--|


  Q    Q    Q    Q       Q.     H        E     Q    Q    Q    Q     
----------------------|---------------------|----------------------|
-------3----3----1----|---------------------|-------3----3----1----|
----------------------|--4------2-----------|----------------------|
----------------------|--4------2--------4--|----------------------|
----------------------|--2------0--------4--|----------------------|
-------2----2----0----|------------------2--|-------2----2----0----|


  E  E  E  E  E  E  E  E     E  E  E  E  E  E  E  E   
--------------------------|--------------------------|
--------------------------|--------3-----3-----1-----|
--4--------2--------------|--------------------------|
--4--------2-----------4--|--------------------------|
--2--2--2--0--0--0--0--4--|--------------------------|
-----------------------2--|--2--2--2--2--2--2--0--0--|


  E  E  E  E  E  E  E  E     H        Q    Q       E  E  E  E  E  E  Q     
--------------------------|-----------3----2----|--3-----------3-----2----|
--------------------------|---------------------|-----------0-------------|
--4-----------2--------4--|---------------------|--------0----------------|
--4-----------2--------4--|---------------------|-----2-------------------|
--2--2--2--2--0--0--0--2--|---------------------|-------------------------|
--------------------------|---------------------|--0--------------0-------|


  E  E  E  E  E  E  Q       E  E  E  E  E  Q    E     E  E  E  E  E  E  Q     
--3-----------3-----2----|--3-----2--0-------------|--------------3-----2----|
--------1----------------|-----------------3----3--|-----------3-------------|
-----0-----0-------------|-----2-------------------|--------0----------------|
-------------------------|--0-----------0----------|-----0-------------------|
--3--------------3-------|-------------------------|-------------------------|
-------------------------|-------------------------|--3--------------3-------|


  E  E  E  E  E  E  Q       E  E  E  E  E  E  Q       E  E  E  E  E  Q    E   
--3-----------3-----2----|--3-----------3-----3----|-----------------5----3--|
-----------0-------------|--------1----------------|--3-----3--3-------------|
--------0----------------|-----0-----0-------------|-----2-------------------|
-----2-------------------|-------------------------|--0-----------0----------|
-------------------------|--3--------------3-------|-------------------------|
--0--------------0-------|-------------------------|-------------------------|


  E  E  E  E  Q    Q       E  E  E  E  Q    Q       E  E  E  E  Q    Q     
--------------3----2----|--3-----------3----2----|--3-----------3----2----|
-----------0--0----0----|--0--------0--0----0----|--1-----1-----1----1----|
--------0---------------|--------0---------------|-----0-----0------------|
-----0------------------|-----2------------------|------------------------|
------------------------|------------------------|--3---------------------|
--3-----------3----2----|--0---------------------|------------------------|


  E  E  E  E  E  Q    E     E  E  E  E  E  E  Q       E  E  E  E  Q    Q     
--3-----2--0-------------|--------------3-----2----|--3-----------3----2----|
--3-----3--3-----3----3--|-----------0--0-----0----|--0--------0--0----0----|
-----2----------------0--|--------0----------------|--------0---------------|
--0-----------0----------|-----0-------------------|-----2------------------|
-------------------------|-------------------------|------------------------|
----------------------3--|-------------------------|--0---------------------|


  E  E  E  E  E  E  E  E     E  E  E  E  E  E  E  E     E  E  E  E  Q    Q     
--3-----------0-----------|--0--------0--------0-----|-----0--------0---------|
--1-----1-----1-----1-----|--------3--------3--------|--3--------3-------3----|
-----0-----0-----0-----0--|-----2--------2--------2--|--------2---------------|
--------------------------|--0-----------------------|------------------------|
--3-----------3-----------|--------------------------|------------------------|
--------------------------|--------------------------|-------------------2----|


  Q    E  E  Q    E  E     E  E  Q    H           Q    E  E  Q    E  E   
--0----0-----0-------0--|--------0----0--------|--0----0-----0-------0--|
--0-------3--0----3--1--|-----3----------------|--3-------3--3----3--0--|
--0----------0-------0--|----------------------|--2----------2-------0--|
------------------------|----------------------|--0----------0----------|
---------------------3--|----------------------|------------------------|
--0----------0----------|----------------------|---------------------3--|


  E  E  Q    H           Q    E  E  Q    E  E     E  E  Q    H         
--------3----0--------|--0----0-----0-------0--|--------0----0--------|
-----3-------0--------|--0-------3--0----3--1--|-----3----------------|
-------------0--------|--0----------0-------0--|----------------------|
----------------------|------------------------|----------------------|
----------------------|---------------------3--|----------------------|
-------------3--------|--0----------0----------|----------------------|


  Q    E  E  Q    E  E     E  E  Q    Q    Q       W                  
--0----0-----0-------0--|--------0----0---------|--0----------------||
--3-------3--3----3-----|-----3--3----3---------|--0----------------||
--2----------2----------|--------2----2---------|--0----------------||
--0----------0-------0--|--------0----0---------|--2----------------||
------------------------|-----------------------|--2----------------||
------------------------|------------------2----|--0----------------||


Duration -egend
---------------
W - whole
H - half
Q - quarter
E - 8th
S - 16th
T - 32nd
X - 64th
. - note dotted
|-n-|  - n-tuplets


Tablature -egend
----------------
L - tied note
x - dead note
g - grace note
(n) - ghost note
> - accentuded note
NH - natural harmonic
AH - artificial harmonic
TH - tapped harmonic
SH - semi harmonic
PH - pitch harmonic
h - hammer on
p - pull off
b - bend
br - bendRelease
pb - preBend
pbr - preBendRelease
brb - bendReleaseBend
\n/ - tremolo bar dip
\n - tremolo bar dive
-/n - tremolo bar Release up
/n\ - tremolo bar inverted dip
/n - tremolo bar return
-\n - tremolo bar Release down
S - shift slide
s - legato slide
/ -  slide into from below or out of upwards
\ -  slide into from above or out of downwards
~ - vibrato
W - wide vibrato
tr - trill
TP - tremolo picking
T - tapping
S - slap
P - pop
< - fade in
^ - brush up
v - brush down
Login or Register to remove this ad.

2 comments on Be Survivor

It's fun, good track and good

5

It's fun, good track and good tab.

Amazing

5

Amazing