Game Over Screen (Extreme Power) Guitar Tab

Submitted: May 21, 2010 by diralark

0
Download | Listen
Game: Extreme Power
Composer(s): Unknown
Style: Arrangement, Fingerstyle

AutoScroll: Slow | Medium | Fast
               Game Over Screen    (from Extreme Power)

composed by ??? >> arrang. for piano by Sperion >> tab by Diralark


Guitar (Capo 3), tempo 84

                       ^                                                   ^                        
     |----3----|                                                                                    
     Q    Q    Q       E  E  E  E  E  E  E  E     E  E  E  E  Q    Q       E  E  E  E  E  E  E  E   
E||-------3----0----|--1-----------------3--1--|--0---------------------|--------------------------|
B||-----------------|-----------------1--------|--------------1---------|--3-----------------1-----|
G||--2--------------|--------------2-----------|-------------------2----|-----------------0-----3--|
D||-----------------|--0-----0--2--0-----------|--------0--2------------|--------------3-----0--2--|
A||-----------------|-----0--------------------|--3-----------3---------|--1-----1--3--3-----------|
E||-----------------|--------------------------|-----3------------------|-----1-----------3--------|


  ^                          ^                                                   
  E  E  E  E  E  E  E  E     E  E  E  E  E  E  E  E     E  E  E  E  E  E  E  E   
--------------------------|--------------------------|--------------------------|
--------------1-----------|--------------------1-----|--------------------3--1--|
--2--------------2--2--3--|--0--------------0-----3--|--2--------------2--------|
--------2--3--------------|-----0--------2-----0--2--|--------2-----3-----------|
-----3--------------------|--------0--1--3-----------|-----3-----3-----3--3-----|
--1-----------------------|--3--------------3--------|--1-----------------------|


                             ^                          ^                        
  E  E  E  E  E  E  E  E     E  E  E  E  E  E  E  E     E  E  E  E  E  E  E  E   
--------------------1--3--|--0-----------------3--0--|--1-----------------3--1--|
--------------------------|--------------------------|-----------------1--------|
--3-----------0--3--------|--------------2--2--0-----|--------------2-----------|
--------------0-----------|-----2--------------------|--0-----0--2--0-----------|
--1-----1--3--------------|--0-----2--4--------------|-----0--------------------|
-----1--------------------|--------------------------|--------------------------|


  ^                        ^                          ^                        
  E  E  E  E  Q    Q       E  E  E  E  E  E  E  E     E  E  E  E  E  E  E  E   
--0---------------------|--------------------------|--------------------------|
--------------1---------|--3-----------------1-----|--------------1-----------|
-------------------2----|-----------------0-----3--|--2--------------2--2--3--|
--------0--2------------|--------------3-----0-----|--------2--3--------------|
--3-----------3---------|--1-----1--3--3-----------|-----3--------------------|
-----3------------------|-----1-----------3--------|--1-----------------------|


  ^                          ^                                                   
  E  E  E  E  E  E  E  E     E  E  E  E  E  E  E  E     E  E  E  E  E  E  E  E   
--------------------------|--------------------------|--------------------------|
--------------------1-----|--------------------------|--------------------------|
--0--------------0-----3--|--2-----0--2--------0--2--|--3-----------------0-----|
-----0--------2-----0--2--|--------2-----3-----------|--------0-----2-----0-----|
--------0--1--3-----------|-----3-----3-----3--3-----|--1-----1--3--3--------7--|
--3--------------3--------|--1-----------------------|-----1-----------3--------|


               ^                               
  E  E  E  S S H            W                  
------------------------|--10----------------||
---------------3--------|--------------------||
---------------2--------|---7----------------||
--0-----0--2-4-0--------|--------------------||
--9--0---------0--------|---9----------------||
------------------------|--------------------||


Legend
---------------
W - whole
H - half
Q - quarter
E - 8th
S - 16th
|-n-|  - n-tuplets
^ - brush up

Login or Register to remove this ad.