Ads

Ordinary World (The Evil Within 2) Guitar Tab

Submitted: Dec 11, 2022 by scarecrowlol (Last updated: Dec 11, 2022)

5
Average: 5 (1 vote)
Download | Listen
Game: The Evil Within 2
Composer(s): Pyotr Ilyich Tchaikovsky, Masatoshi Yanagi, Shuichi Kobori, Claude Achille Debussy, Simon Le Bon, John Taylor, James Bates, Warr
Style: Arrangement, Fingerstyle
Series: The Evil Within

Click here for a video example.

AutoScroll: Slow | Medium | Fast
Title: Ordinary World
SubTitle: The Evil Within 2
Artist: Duran Duran
The Hit House (BMI), Scott Lee Miller + William August Hunt of The Hit House LLC
Tabber: Mitch Jackson
Tempo = 70
T/S = 4/4

Tuning = Drop 'D'

Left hand fingering is included in GP file as a guide

---------
LEGEND 
---------
p = Pull-off
L = Hold Previous Note
s = Slide
b = Bend
x = Dead Note (Mute)
^ = Upward Arpeggio
v = Downward Arpeggio
cres = Crescendo (Gradually Play Louder)
mp = mezzo-piano (Moderately Quiet)
mf = mezzo-forte (Moderately Loud)
f = forte (Loud or Strong)


  mf  
     H           H                H           Q     Q          Q.       E  H                H           Q     Q
E |----------------------------|----------------------------|----------------------------|----------------------------|
B |--0-------------------------|--3-----------3-----1-------|--0-------------------------|--3-----------4-----3-------|
G |--0-----------3-------------|--3-----------3-------------|--0-----------3-------------|--3-----------5-------------|
D |--0-----------1-------------|--3-----------1-------------|--0-----------1-------------|--3-----------5-------------|
A |--------------3-------------|--1-------------------------|--------------1-------------|--1-----------3-------------|
D |--5-----------1-------------|--------------1-------------|--5--------5--1-------------|----------------------------|

      
     E  E  E.  S E  S E.  E       E  E  S S E  Q     Q          E  E  E.  S E  E  E  E       H           Q     Q
  |----------------------------|-----------------------------|----------------------------|----------------------------|
  |----------------------------|--3------------3-----1-------|----------------------------|--3-----------4-----3-------|
  |-----0--2---0-2--3-2---0----|--2--0--2-3----3-------------|-----0--2---0-2--3--2--0----|--3-----------5-------------|
  |--0-----------1-------------|--3---------0--0-------------|--0-----------1-------------|--3-----------5-------------|
  |--------------3-------------|--1--------------------------|--------------3-------------|--1-----------3-------------|
  |--5-----------1-------------|---------------1-------------|--5-----------1-------------|----------------------------|

                                                     
     E  S E.  E  E  S E.  E       E  E  S S E  Q     Q          E  E  E.  S E  S E.  E       E  Q.       H
  |----------------------------|-----------------------------|----------------------------|----------------------------|
  |----------------------------|--3------------3-----1-------|----------------------------|--3-------------------------|
  |-----0-2---0--2--3-2---0----|--2--0--2-3----3-------------|-----0--2---0-2--3-2---0----|--0-----------0-------------|
  |--0-----------1-------------|--3---------0--0-------------|--0-----------1-------------|-----3--------2-------------|
  |--------------3-------------|--1--------------------------|--------------3-------------|--1-----------3-------------|
  |--5-----------1-------------|---------------1-------------|--5-----------1-------------|--------------5-------------|

                                                                                               cres                 f
     E  E  E  E  S S E  E  E       E  E  S S E  E  E  E  E       E  E  E  E  E  E  E  S S      E  E  E  E  E  E  E  E
  |-----3--5--3--5-3-3----------|--1--3--5-3-5----------------|--3--3--1--3-----1--5--3-5---|--1-----------1-----3-------|
  |--3------------------3-------|--3------------5-----5-------|--1--1-----1-----------------|--3-----3-------------------|
  |--3---------------------3----|--2---------------2-----2----|--2-----2-----2--------------|--3-----3-----3-----3-------|
  |--0--------------------------|--0--------------------------|-----------------------------|-----3-----3-----3-----3----|
  |-----------------------------|-----------------------------|--0--------------------------|--1-------------------------|
  |--5--------------------------|--0--------------------------|-----------------------------|----------------------------|

  mp                                                  
     E.  S S E.  E  S E.  E       Q     E  S E.  S E.  E       Q     S E  Q     S E  E       E  E  E  E  E  E  E
  |--5-----5-8---8--8-6---5----|--3-----3----3-----3---6----|--6-----3-6--6-----L-6--8----|--8-----------8-------------|
  |--6---6---------------------|--4--------6-----6----------|--4--------------------------|--6--------------6----------|
  |--5-------------------------|--0-------------------------|--3--------------------------|--------7-------------------|
  |----------------------------|----------------------------|-----------------------------|-----8-----8--------8-------|
  |----------------------------|----------------------------|-----------------------------|----------------------------|
  |----------------------------|----------------------------|-----------------------------|----------------------------|

                                                                                                 cres
     E  S S S E.  E  S E.  E       Q     E  S E.  S E.  E       Q     S E  Q     S E  E       E  E  E  E  E  E  E  E
  |-----5---5-8---8--8-6---5----|--3-----3----3-----3---6----|--6-----3-6--6-----L-6--8----|--8-------------------------|
  |--6----6---------------------|--4--------6-----6----------|--4--------------------------|--6-------------------------|
  |--5--------------------------|--0-------------------------|--3--------------------------|--------6-----6-----6-------|
  |-----------------------------|----------------------------|-----------------------------|-----8-----8-----8-----8----|
  |-----------------------------|----------------------------|-----------------------------|----------------------------|
  |-----------------------------|----------------------------|-----------------------------|----------------------------|

  mf                                      ^                                                           
     S S S S S S S S S S S S S S S S      W                            E  E  E  E  S S Q     E       E  E  S S E  Q     Q
  |--10------10------8-------6---------|--5-------------------------|-----------------------------|-----------------------------|
  |----6---6---6---6---6---6---6---6---|--6-------------------------|--0--------------------------|--3------------3-----1-------|
  |------7-------7-------7-------7-----|--7-------------------------|--2--0--2--0--2-0-0-----0----|--2--0--2-3----3-------------|
  |--0---------------------------------|--0-------------------------|--0-----------1--------------|--3---------0--0-------------|
  |------------------------------------|----------------------------|--------------3--------------|--1--------------------------|
  |------------------------------------|----------------------------|--5-----------1--------------|---------------1-------------|

                                                     
     E  E  E  E  E  S Q     S      E  E  E  E  E  E  E  E       E  E  E  S S S E.  E  S S      S Q     S S S Q     Q
  |-----------------------------|----------------------------|------------------------------|------------------------------|
  |-----------------------------|--3-----3-----4--6--4--3----|--3---------------------------|--3-------------3-----1-------|
  |-----0--2--0--2--3-2-----L---|--3--3-----3----------------|--0--0--2--0-2---0---2--0-2---|----0-----2-3---3-------------|
  |--0-----------1--------------|--3-----------5-------------|--0---------------------------|--3-----------0-0-------------|
  |--------------3--------------|--1-----------3-------------|------------------------------|--1---------------------------|
  |--5-----------1--------------|----------------------------|--5------------1--------------|----------------1-------------|

                             
     E  E  E  E  E  E  E  E       E  Q.       H                E  E  E  S S E  E  E  E       E  E  S S E  E  E  E  E
  |----------------------------|----------------------------|-----3--5--3-5----3----------|-----3--5-3-5----------------|
  |----------------------------|--3-------------------------|--3--------3---------3-------|--3-----3------5-----5-------|
  |-----0--2--0--2--3--2--0----|--0-----------0-------------|--------3------3--------3----|--2---------------2-----2----|
  |--0-----------1-------------|-----3--------2-------------|-----0-----------------------|-----0-----------------------|
  |--------------3-------------|--1-----------3-------------|-----------------------------|-----------------------------|
  |--5-----------1-------------|--------------5-------------|--5--------------------------|--0--------------------------|

                                         cres                f
     E  E  E  E  E  E  E  E       S S E  E  E  E  E  E  E       E  S S S E.  S S S E.  S S      E  E  E  E  S S S E.  E
  |--3--3--1--3-----1--5--3----|----5-1--------1-----3-------|--0--------5---5---5-------0---|--0-----0-----0-----0---0----|
  |--------1-----0-------------|---------3-----3-----1-------|--6------8-----6-----8---6-----|--1-----1--3--1---3----------|
  |-----2-----2----------------|---------3-----3-----3-------|--7----7-------7---------------|--2-----2-----2---------2----|
  |----------------------------|------------3-----3-----3----|-----0-----------0-------------|-----2----------2------------|
  |--0-------------------------|--1--------------------------|-------------------------------|--0-----------0--------------|
  |----------------------------|-----------------------------|--0------------0---------------|-----------------------------|

                                                     
     E  E  S S S S E  E  E  S S      E  E  E  E  E  E  E  E       E  S S S E.  S S S E.  E       E  E  E  E  S S S E.  E
  |--1-----1-1-----3-----3--5-5---|--L-----------------3-------|--0--------5---5---5----------|--0-----0-----0-----0---0----|
  |--3-----3---3---------1--------|--------------3-------------|--6------8-----6-----8---6----|--1-----1--3--1---3----------|
  |--3-----3-----3-------3--------|--------5-----5-----2-------|--7----7-------7--------------|--2-----2-----2---------2----|
  |-----3-------------3-----------|--------3-----3-----2-------|-----0-----------0------------|-----2----------2------------|
  |--1-------------1--------------|-----3-----3-----3-----2----|------------------------------|--0-----------0--------------|
  |-------------------------------|--3-----------------2-------|--0------------0--------------|-----------------------------|

                             
     E  E  S S S S E  E  E  S S      E  E  E  E  E  E  E  E       S S S S S S S S S S S S E  E       S S S S S S S S S S E  S S E
  |--1-----1-1-----3-----3--5-5---|--L-----------------6-------|--6s5-------5s3---3-1-1-----------|-------------------------3p1-1----|
  |--3-----3---3---3-----3--------|--------------3-----3-------|----------6-------------3----1----|--1-------------------------------|
  |--3-----3-----3----3-----------|--------5-----5-----5-------|--------7-----------------2-------|------3---3p2---2-2p0-0-----------|
  |-----3-------------------------|--------3-----3-----3-------|------0---------0-----------------|--------1-------------------------|
  |--1-------------1--------------|-----3-----3-----3-----3----|----------------------------------|----1---------1-------------------|
  |-------------------------------|--3-------------------------|--0---------------0---------------|--1---------------1---------------|

                             
     S S S E  S S S S S S S S S S S      S S S E  S S S S S S S S S S       S S S S S S S S S S S S E  E       S S S S S S S S S S E  S S E
  |-----------------------------------|--1-----1----1-----------1---1----|--6s5-------5s3---3-1-1-----------|-------------------------3p1-1----|
  |--6-----6----6-----------6---------|----------------------------------|----------6-------------3----1----|--1-------------------------------|
  |-----------------------------------|------3----3---3-----3-----3------|--------7-----------------2-------|------3---3p2---2-2p0-0-----------|
  |------8----8---------8-----8---8---|----3--------------3---3----------|------0---------0-----------------|--------1-------------------------|
  |----6----------6---6---6-----6-----|--1--------------1----------------|----------------------------------|----1---------1-------------------|
  |--6--------------6-----------------|----------------------------------|--0---------------0---------------|--1---------------1---------------|

                                                        ^                                             mp
     S S S E  S S S S S S S S S S S      S S S E  S S S H                   W                            E  E  E  S E  S Q.  
  |-----------------------------------|----------------------------------|----------------------------|-----3--5--3-5--3-5----------|
  |--6-----6----6-----------6---------|--4-----4----4---4b---------------|--L-------------------------|--6--------------------------|
  |-----------------------------------|------3----3-----3----------------|--L-------------------------|--7--------------------------|
  |------8----8---------8-----8---8---|----------------------------------|----------------------------|--0--------------------------|
  |----6----------6---6---6-----6-----|----4----------4-4----------------|--L-------------------------|-----------------------------|
  |--6--------------6-----------------|--4--------------4----------------|--L-------------------------|-----------------------------|

                                                                                    mf                     f
                                                                     cres           ^       3/4            ^ v ^ v     
     E  E  S. E  S. S Q.            E  E  E  Q     E  E  S S      E  E  E  E  E  E  Q          H           S S S S
  |-----3--5--3--5--L-L----------|--3--3-----3--------5--3-5---|--1-----------0-----1-------|--L---------------------|
  |--3---------------------------|--5-----6--------6-----------|--------3-----3-----3-------|--L---------------------|
  |--5---------------------------|--5--------------------------|--------3-----3-----3-------|--L---------------------|
  |------------------------------|-----------------------------|-----3-----3-----3--3-------|--L-----------x-x-x-x---|
  |------------------------------|-----------------------------|--1-----------------1-------|--L-----------x-x-x-x---|
  |------------------------------|-----------------------------|----------------------------|--------------x-x-x-x---|

  4/4                                                                        
     E  S S S S S S S S S S E  S S      E  E  E  E  S S S S E  E       E  E  S S S S E  E  E  S S      E  E  E  E  E  E  E  E
  |--0--------5-----5---5--------0---|--0-----0-----0-----0----0----|--1-----1-1-----3-----3--5-5---|--L-----------------3-------|
  |--6------8---6---6-----8----6-----|--1-----1--3--1---3-----------|--3-----3---3---------1--------|--------------3-------------|
  |--7----7-------7-7----------------|--2-----2-----2----------2----|--3-----3-----3-------3--------|--------5-----5-----2-------|
  |-----0-------------0-----0--------|-----2----------2-----2-------|-----3-------------3-----------|--------3-----3-----2-------|
  |----------------------------------|--0-----------0---------------|--1-------------1--------------|-----3-----3-----3-----2----|
  |--0--------------0----------------|------------------------------|-------------------------------|--3-----------------2-------|

                                                     
     E  S S S S S S S S S S E  E       E  E  E  E  S S S S E  E       E  E  S S S S E  E  E  S S      E  E  E  E  E  E  E  E
  |--0--------5-----5---5-----------|--0-----0-----0-----0----0----|--1-----1-1-----3-----3--5-5---|--L-----------------5--9----|
  |--6------8---6---6-----8----6----|--1-----1--3--1---3-----------|--3-----3---3---3-----3--------|--------------3-----3--6----|
  |--7----7-------7-7---------------|--2-----2-----2----------2----|--3-----3-----3----3-----------|--------5-----5-----5--7----|
  |-----0-------------0-----0-------|-----2----------2-----2-------|-----3-------------------------|--------3-----3-----3-------|
  |---------------------------------|--0-----------0---------------|--1-------------1--------------|-----3-----3-----3----------|
  |--0--------------0---------------|------------------------------|-------------------------------|--3-------------------------|

     ^     ^  v  ^  v  ^  v  ^     ^  v  ^  v  ^  v       ^  v  ^  v  ^  v  ^  v  ^  v  ^  v  ^  v  ^  v
     S  S  S  S  S  S  S  S  S  S  S  S  S  S  S  S       S  S  S  S  S  S  S  S  S  S  S  S  S  S  S  S
  |--9s-10-10-10-10-10-10-10-10s9--9--9--9--9--9--9----|--12-12-12-12-12-12-12-12-13-13-13-13-13-13-13-13---|
  |--10----10-10-10-10-10-10-10----10-10-10-10-10-10---|--10-10-10-10-10-10-10-10-10-10-10-10-10-10-10-10---|
  |--10----10-10-10-10-10-10-10----10-10-10-10-10-10---|--10-10-10-10-10-10-10-10-10-10-10-10-10-10-10-10---|
  |--0-----0--0--0--0--0--0--0-----0--0--0--0--0--0----|--0--0--0--0--0--0--0--0--0--0--0--0--0--0--0--0----|
  |--0-----0--0--0--0--0--0--0-----0--0--0--0--0--0----|--0--0--0--0--0--0--0--0--0--0--0--0--0--0--0--0----|
  |--0-----0--0--0--0--0--0--0-----0--0--0--0--0--0----|--0--0--0--0--0--0--0--0--0--0--0--0--0--0--0--0----|

     ^     ^  v  ^  v  ^  v  ^     ^  v  ^  v  ^  v       ^  v  ^  v  ^  v  ^  v  ^     ^  v  ^  v  ^  v     
     S  S  S  S  S  S  S  S  S  S  S  S  S  S  S  S       S  S  S  S  S  S  S  S  S  S  S  S  S  S  S  S      
  |--9s-10-10-10-10-10-10-10-10s9--9--9--9--9--9--9----|--6--6--6--6--6--6--6--6--6s-5--5--5--5--5--5--5----|
  |--10----10-10-10-10-10-10-10----10-10-10-10-10-10---|--6--6--6--6--6--6--6--6--6-----6--6--6--6--6--6----|
  |--10----10-10-10-10-10-10-10----10-10-10-10-10-10---|--7--7--7--7--7--7--7--7--7-----7--7--7--7--7--7----|
  |--0-----0--0--0--0--0--0--0-----0--0--0--0--0--0----|--0--0--0--0--0--0--0--0--0-----0--0--0--0--0--0----|
  |--0-----0--0--0--0--0--0--0-----0--0--0--0--0--0----|--0--0--0--0--0--0--0--0--0-----0--0--0--0--0--0----|
  |--0-----0--0--0--0--0--0--0-----0--0--0--0--0--0----|--0--0--0--0--0--0--0--0--0-----0--0--0--0--0--0----|

     ^  v  ^  v  ^  v  ^  v  ^  v  ^  v  ^  v  ^  v        ^  v  ^  v  ^  v  ^  v  ^  v  ^                  2/4
     S  S  S  S  S  S  S  S  S  S  S  S  S  S  S  S       S  S  S  S  S  S  S  S  S  S  S  S  S  S  S  S       H   
  |--10-10-10-10-10-10-10-10-12-12-12-12-12-12-12-12---|--13-13-13-13-14-14-15-15-16-16-17------------------|--L-------------|
  |--10-10-10-10-10-10-10-10-10-10-10-10-10-10-10-10---|--10-10-10-10-10-10-10-10-10-10-15------------------|--L-------------|
  |--10-10-10-10-10-10-10-10-10-10-10-10-10-10-10-10---|--10-10-10-10-10-10-10-10-10-10-14------------------|--L-------------|
  |--0--0--0--0--0--0--0--0--0--0--0--0--0--0--0--0----|--0--0--0--0--0--0--0--0--0--0--0-------------------|--L-------------|
  |--0--0--0--0--0--0--0--0--0--0--0--0--0--0--0--0----|--0--0--0--0--0--0--0--0--0--0--0-------------------|--L-------------|
  |--0--0--0--0--0--0--0--0--0--0--0--0--0--0--0--0----|--0--0--0--0--0--0--0--0--0--0--0-------------------|--L-------------|

  mp
  4/4 
     E  E  E  E  E  S E  E  S      E  E  E  E  E  S S E  E       E  E  S E  E.  E  E  E       W
  |-----8-----8--8--8-6--5------|------------------------6----|-----11----------------8----|--8-------------------------||
  |--------10---------------8---|-----8--8--6--8--6-8---------|--------8-11-11-----11------|--10------------------------||
  |--10----------10-------------|--5------------------5-------|--8--------------8----------|--10------------------------||
  |-----------------------------|-----------------------------|----------------------------|----------------------------||
  |-----------------------------|-----------------------------|----------------------------|----------------------------||
  |-----------------------------|-----------------------------|----------------------------|----------------------------||


Note Durations:
---------------
W = Whole Note / Semibreve - 4 Beats
H = Half Note / Minim - 2 Beats
Q.= Dotted Quarter Note - 1 & 1/2 Beats (Crotchet + Quaver)
Q = Quarter Note / Crotchet - 1 Beat
E.= Dotted Eighth Note - 3/4 (Quaver + Semiquaver)
E = Eighth Note / Quaver - 1/2 Beat
S.= Dotted Sixteenth Note - 3/8 Beat or 0.375 (Semiquaver + Demisemiquaver)
S = Sixteenth Note / Semiquaver - 1/4 Beat
Login or Register to remove this ad.